  0
SECTION
  2
HEADER
  9
$ACADVER
  1
AC1003
  9
$INSBASE
 10
0.0
 20
0.0
  9
$EXTMIN
 10
-8.59244
 20
-0.4922
  9
$EXTMAX
 10
16.12389
 20
8.80761
  9
$LIMMIN
 10
0.0
 20
0.0
  9
$LIMMAX
 10
0.0
 20
0.0
  9
$VIEWCTR
 10
6.591288
 20
4.579184
  9
$VIEWSIZE
 40
9.158369
  9
$SNAPMODE
 70
     0
  9
$SNAPUNIT
 10
1.0
 20
1.0
  9
$SNAPBASE
 10
0.0
 20
0.0
  9
$SNAPANG
 50
0.0
  9
$SNAPSTYLE
 70
     0
  9
$SNAPISOPAIR
 70
     0
  9
$GRIDMODE
 70
     0
  9
$GRIDUNIT
 10
0.0
 20
0.0
  9
$ORTHOMODE
 70
     0
  9
$REGENMODE
 70
     1
  9
$FILLMODE
 70
     1
  9
$QTEXTMODE
 70
     0
  9
$DRAGMODE
 70
     2
  9
$LTSCALE
 40
1.0
  9
$OSMODE
 70
     0
  9
$ATTMODE
 70
     1
  9
$TEXTSIZE
 40
0.2
  9
$TRACEWID
 40
0.05
  9
$TEXTSTYLE
  7
STANDARD
  9
$CLAYER
  8
0
  9
$CELTYPE
  6
CONTINUOUS
  9
$CECOLOR
 62
   256
  9
$DIMSCALE
 40
1.0
  9
$DIMASZ
 40
0.18
  9
$DIMEXO
 40
0.0625
  9
$DIMDLI
 40
0.38
  9
$DIMRND
 40
0.0
  9
$DIMDLE
 40
0.0
  9
$DIMEXE
 40
0.18
  9
$DIMTP
 40
0.0
  9
$DIMTM
 40
0.0
  9
$DIMTXT
 40
0.18
  9
$DIMCEN
 40
0.09
  9
$DIMTSZ
 40
0.0
  9
$DIMTOL
 70
     0
  9
$DIMLIM
 70
     0
  9
$DIMTIH
 70
     1
  9
$DIMTOH
 70
     1
  9
$DIMSE1
 70
     0
  9
$DIMSE2
 70
     0
  9
$DIMTAD
 70
     0
  9
$DIMZIN
 70
     0
  9
$DIMBLK
  1

  9
$DIMASO
 70
     1
  9
$DIMSHO
 70
     1
  9
$DIMPOST
  1

  9
$DIMAPOST
  1

  9
$DIMALT
 70
     0
  9
$DIMALTD
 70
     2
  9
$DIMALTF
 40
25.4
  9
$DIMLFAC
 40
1.0
  9
$LUNITS
 70
     2
  9
$LUPREC
 70
     4
  9
$AXISMODE
 70
     0
  9
$AXISUNIT
 10
0.0
 20
0.0
  9
$SKETCHINC
 40
0.1
  9
$FILLETRAD
 40
0.0
  9
$AUNITS
 70
     0
  9
$AUPREC
 70
     0
  9
$MENU
  1
acad
  9
$ELEVATION
 40
0.0
  9
$THICKNESS
 40
0.0
  9
$VIEWDIR
 10
0.0
 20
0.0
 30
1.0
  9
$LIMCHECK
 70
     0
  9
$BLIPMODE
 70
     1
  9
$CHAMFERA
 40
0.0
  9
$CHAMFERB
 40
0.0
  9
$FASTZOOM
 70
     1
  9
$SKPOLY
 70
     0
  9
$TDCREATE
 40
0.000000000
  9
$TDUPDATE
 40
0.000000000
  9
$TDINDWG
 40
0.0000000000
  9
$TDUSRTIMER
 40
0.0000000000
  9
$USRTIMER
 70
     1
  9
$ANGBASE
 50
0.0
  9
$ANGDIR
 70
     0
  9
$PDMODE
 70
     0
  9
$PDSIZE
 40
0.0
  9
$PLINEWID
 40
0.0
  9
$COORDS
 70
     0
  9
$USERI1
 70
     0
  9
$USERI2
 70
     0
  9
$USERI3
 70
     0
  9
$USERI4
 70
     0
  9
$USERI5
 70
     0
  9
$USERR1
 40
0.0
  9
$USERR2
 40
0.0
  9
$USERR3
 40
0.0
  9
$USERR4
 40
0.0
  9
$USERR5
 40
0.0
  0
ENDSEC
  0
SECTION
  2
TABLES
  0
TABLE
  2
LTYPE
 70
     1
  0
LTYPE
  2
CONTINUOUS
 70
    64
  3
Solid line
 72
    65
 73
     0
 40
0.0
  0
ENDTAB
  0
TABLE
  2
LAYER
 70
     2
  0
LAYER
  2
0
 70
     0
 62
     7
  6
CONTINUOUS
  0
LAYER
  2
LAYER_1
 70
     0
 62
     7
  6
CONTINUOUS
  0
ENDTAB
  0
TABLE
  2
STYLE
 70
     1
  0
STYLE
  2
STANDARD
 70
     0
 40
0.0
 41
1.0
 50
0.0
 71
     0
 42
0.0
  3
txt
  4

  0
ENDTAB
  0
TABLE
  2
VIEW
 70
     0
  0
ENDTAB
  0
ENDSEC
  0
SECTION
  2
BLOCKS
  0
ENDSEC
  0
SECTION
  2
ENTITIES
  0
POLYLINE
  8
0
 66
     1
  0
VERTEX
  8
0
 10
-7.49377
 20
8.19739
  0
VERTEX
  8
0
 10
-7.49377
 20
8.19739
  0
VERTEX
  8
0
 10
-7.49503
 20
8.19831
  0
VERTEX
  8
0
 10
-7.4963
 20
8.19922
  0
VERTEX
  8
0
 10
-7.49756
 20
8.2001
  0
VERTEX
  8
0
 10
-7.49884
 20
8.20096
  0
VERTEX
  8
0
 10
-7.5001
 20
8.20177
  0
VERTEX
  8
0
 10
-7.50136
 20
8.20256
  0
VERTEX
  8
0
 10
-7.50262
 20
8.20332
  0
VERTEX
  8
0
 10
-7.50388
 20
8.20406
  0
VERTEX
  8
0
 10
-7.50511
 20
8.20474
  0
VERTEX
  8
0
 10
-7.50637
 20
8.20541
  0
VERTEX
  8
0
 10
-7.50762
 20
8.20605
  0
VERTEX
  8
0
 10
-7.50888
 20
8.20666
  0
VERTEX
  8
0
 10
-7.51011
 20
8.20722
  0
VERTEX
  8
0
 10
-7.51137
 20
8.20777
  0
VERTEX
  8
0
 10
-7.51262
 20
8.20829
  0
VERTEX
  8
0
 10
-7.51388
 20
8.20879
  0
VERTEX
  8
0
 10
-7.51514
 20
8.20925
  0
VERTEX
  8
0
 10
-7.51643
 20
8.20969
  0
VERTEX
  8
0
 10
-7.51771
 20
8.21009
  0
VERTEX
  8
0
 10
-7.519
 20
8.21047
  0
VERTEX
  8
0
 10
-7.52029
 20
8.21081
  0
VERTEX
  8
0
 10
-7.52158
 20
8.21112
  0
VERTEX
  8
0
 10
-7.52287
 20
8.2114
  0
VERTEX
  8
0
 10
-7.52418
 20
8.21166
  0
VERTEX
  8
0
 10
-7.52547
 20
8.21186
  0
VERTEX
  8
0
 10
-7.52678
 20
8.21205
  0
VERTEX
  8
0
 10
-7.52808
 20
8.21221
  0
VERTEX
  8
0
 10
-7.5294
 20
8.21235
  0
VERTEX
  8
0
 10
-7.53072
 20
8.21245
  0
VERTEX
  8
0
 10
-7.53204
 20
8.21253
  0
VERTEX
  8
0
 10
-7.53336
 20
8.21257
  0
VERTEX
  8
0
 10
-7.53469
 20
8.21259
  0
VERTEX
  8
0
 10
-7.53908
 20
8.21244
  0
VERTEX
  8
0
 10
-7.54343
 20
8.212
  0
VERTEX
  8
0
 10
-7.54769
 20
8.21127
  0
VERTEX
  8
0
 10
-7.55189
 20
8.21026
  0
VERTEX
  8
0
 10
-7.556
 20
8.20894
  0
VERTEX
  8
0
 10
-7.56005
 20
8.20734
  0
VERTEX
  8
0
 10
-7.56401
 20
8.20545
  0
VERTEX
  8
0
 10
-7.56791
 20
8.20327
  0
VERTEX
  8
0
 10
-7.57172
 20
8.20078
  0
VERTEX
  8
0
 10
-7.57547
 20
8.19801
  0
VERTEX
  8
0
 10
-7.57913
 20
8.19495
  0
VERTEX
  8
0
 10
-7.58275
 20
8.1916
  0
VERTEX
  8
0
 10
-7.58626
 20
8.18794
  0
VERTEX
  8
0
 10
-7.58973
 20
8.18401
  0
VERTEX
  8
0
 10
-7.5931
 20
8.17978
  0
VERTEX
  8
0
 10
-7.59642
 20
8.17525
  0
VERTEX
  8
0
 10
-7.59955
 20
8.17047
  0
VERTEX
  8
0
 10
-7.6025
 20
8.16558
  0
VERTEX
  8
0
 10
-7.60524
 20
8.16056
  0
VERTEX
  8
0
 10
-7.60778
 20
8.15543
  0
VERTEX
  8
0
 10
-7.6101
 20
8.15015
  0
VERTEX
  8
0
 10
-7.61224
 20
8.14476
  0
VERTEX
  8
0
 10
-7.61417
 20
8.13924
  0
VERTEX
  8
0
 10
-7.61591
 20
8.13361
  0
VERTEX
  8
0
 10
-7.61742
 20
8.12782
  0
VERTEX
  8
0
 10
-7.61874
 20
8.12193
  0
VERTEX
  8
0
 10
-7.61985
 20
8.1159
  0
VERTEX
  8
0
 10
-7.62077
 20
8.10976
  0
VERTEX
  8
0
 10
-7.62147
 20
8.10346
  0
VERTEX
  8
0
 10
-7.62199
 20
8.09706
  0
VERTEX
  8
0
 10
-7.62229
 20
8.09052
  0
VERTEX
  8
0
 10
-7.6224
 20
8.08386
  0
VERTEX
  8
0
 10
-7.62222
 20
8.07447
  0
VERTEX
  8
0
 10
-7.62172
 20
8.06531
  0
VERTEX
  8
0
 10
-7.62087
 20
8.05635
  0
VERTEX
  8
0
 10
-7.6197
 20
8.04763
  0
VERTEX
  8
0
 10
-7.61817
 20
8.0391
  0
VERTEX
  8
0
 10
-7.61632
 20
8.03081
  0
VERTEX
  8
0
 10
-7.61413
 20
8.02272
  0
VERTEX
  8
0
 10
-7.61162
 20
8.01485
  0
VERTEX
  8
0
 10
-7.60875
 20
8.00718
  0
VERTEX
  8
0
 10
-7.60555
 20
7.99973
  0
VERTEX
  8
0
 10
-7.602
 20
7.99248
  0
VERTEX
  8
0
 10
-7.59813
 20
7.98547
  0
VERTEX
  8
0
 10
-7.59391
 20
7.97864
  0
VERTEX
  8
0
 10
-7.58936
 20
7.97204
  0
VERTEX
  8
0
 10
-7.58446
 20
7.96564
  0
VERTEX
  8
0
 10
-7.57924
 20
7.95947
  0
VERTEX
  8
0
 10
-7.57372
 20
7.95361
  0
VERTEX
  8
0
 10
-7.56804
 20
7.94813
  0
VERTEX
  8
0
 10
-7.56216
 20
7.94302
  0
VERTEX
  8
0
 10
-7.55611
 20
7.93831
  0
VERTEX
  8
0
 10
-7.54985
 20
7.93396
  0
VERTEX
  8
0
 10
-7.54343
 20
7.93
  0
VERTEX
  8
0
 10
-7.53682
 20
7.92642
  0
VERTEX
  8
0
 10
-7.53004
 20
7.92322
  0
VERTEX
  8
0
 10
-7.52305
 20
7.92038
  0
VERTEX
  8
0
 10
-7.51589
 20
7.91793
  0
VERTEX
  8
0
 10
-7.50854
 20
7.91585
  0
VERTEX
  8
0
 10
-7.50102
 20
7.91416
  0
VERTEX
  8
0
 10
-7.49329
 20
7.91284
  0
VERTEX
  8
0
 10
-7.4854
 20
7.91191
  0
VERTEX
  8
0
 10
-7.47733
 20
7.91134
  0
VERTEX
  8
0
 10
-7.46908
 20
7.91116
  0
VERTEX
  8
0
 10
-7.4578
 20
7.9115
  0
VERTEX
  8
0
 10
-7.44672
 20
7.91254
  0
VERTEX
  8
0
 10
-7.4358
 20
7.91427
  0
VERTEX
  8
0
 10
-7.42509
 20
7.91671
  0
VERTEX
  8
0
 10
-7.41453
 20
7.91982
  0
VERTEX
  8
0
 10
-7.40417
 20
7.92365
  0
VERTEX
  8
0
 10
-7.39397
 20
7.92816
  0
VERTEX
  8
0
 10
-7.38398
 20
7.93337
  0
VERTEX
  8
0
 10
-7.37414
 20
7.93926
  0
VERTEX
  8
0
 10
-7.3645
 20
7.94585
  0
VERTEX
  8
0
 10
-7.35502
 20
7.95312
  0
VERTEX
  8
0
 10
-7.34575
 20
7.96111
  0
VERTEX
  8
0
 10
-7.33665
 20
7.96977
  0
VERTEX
  8
0
 10
-7.32774
 20
7.97914
  0
VERTEX
  8
0
 10
-7.31901
 20
7.98919
  0
VERTEX
  8
0
 10
-7.31048
 20
7.99995
  0
VERTEX
  8
0
 10
-7.30229
 20
8.01116
  0
VERTEX
  8
0
 10
-7.29464
 20
8.02263
  0
VERTEX
  8
0
 10
-7.28751
 20
8.03435
  0
VERTEX
  8
0
 10
-7.28093
 20
8.04632
  0
VERTEX
  8
0
 10
-7.27485
 20
8.05853
  0
VERTEX
  8
0
 10
-7.26932
 20
8.07099
  0
VERTEX
  8
0
 10
-7.26429
 20
8.08371
  0
VERTEX
  8
0
 10
-7.25981
 20
8.09667
  0
VERTEX
  8
0
 10
-7.25583
 20
8.10987
  0
VERTEX
  8
0
 10
-7.2524
 20
8.12332
  0
VERTEX
  8
0
 10
-7.24949
 20
8.137
  0
VERTEX
  8
0
 10
-7.24712
 20
8.15095
  0
VERTEX
  8
0
 10
-7.24526
 20
8.16511
  0
VERTEX
  8
0
 10
-7.24394
 20
8.17954
  0
VERTEX
  8
0
 10
-7.24314
 20
8.1942
  0
VERTEX
  8
0
 10
-7.24289
 20
8.20911
  0
VERTEX
  8
0
 10
-7.24301
 20
8.21772
  0
VERTEX
  8
0
 10
-7.2434
 20
8.22609
  0
VERTEX
  8
0
 10
-7.24403
 20
8.23422
  0
VERTEX
  8
0
 10
-7.24494
 20
8.24214
  0
VERTEX
  8
0
 10
-7.2461
 20
8.2498
  0
VERTEX
  8
0
 10
-7.24752
 20
8.25724
  0
VERTEX
  8
0
 10
-7.24919
 20
8.26444
  0
VERTEX
  8
0
 10
-7.25113
 20
8.27142
  0
VERTEX
  8
0
 10
-7.25331
 20
8.27815
  0
VERTEX
  8
0
 10
-7.25577
 20
8.28466
  0
VERTEX
  8
0
 10
-7.25847
 20
8.29093
  0
VERTEX
  8
0
 10
-7.26145
 20
8.29698
  0
VERTEX
  8
0
 10
-7.26468
 20
8.30278
  0
VERTEX
  8
0
 10
-7.26817
 20
8.30836
  0
VERTEX
  8
0
 10
-7.27192
 20
8.31372
  0
VERTEX
  8
0
 10
-7.27595
 20
8.31885
  0
VERTEX
  8
0
 10
-7.2802
 20
8.32368
  0
VERTEX
  8
0
 10
-7.28464
 20
8.32821
  0
VERTEX
  8
0
 10
-7.28928
 20
8.33242
  0
VERTEX
  8
0
 10
-7.29412
 20
8.33634
  0
VERTEX
  8
0
 10
-7.29914
 20
8.33992
  0
VERTEX
  8
0
 10
-7.30437
 20
8.34321
  0
VERTEX
  8
0
 10
-7.30979
 20
8.34616
  0
VERTEX
  8
0
 10
-7.31541
 20
8.34883
  0
VERTEX
  8
0
 10
-7.3212
 20
8.35115
  0
VERTEX
  8
0
 10
-7.32721
 20
8.35318
  0
VERTEX
  8
0
 10
-7.33341
 20
8.35489
  0
VERTEX
  8
0
 10
-7.33981
 20
8.3563
  0
VERTEX
  8
0
 10
-7.3464
 20
8.35738
  0
VERTEX
  8
0
 10
-7.35319
 20
8.35816
  0
VERTEX
  8
0
 10
-7.36018
 20
8.35862
  0
VERTEX
  8
0
 10
-7.36738
 20
8.35879
  0
VERTEX
  8
0
 10
-7.36889
 20
8.35877
  0
VERTEX
  8
0
 10
-7.37047
 20
8.35876
  0
VERTEX
  8
0
 10
-7.37209
 20
8.35871
  0
VERTEX
  8
0
 10
-7.37377
 20
8.35868
  0
VERTEX
  8
0
 10
-7.37548
 20
8.3586
  0
VERTEX
  8
0
 10
-7.37725
 20
8.35854
  0
VERTEX
  8
0
 10
-7.37906
 20
8.35845
  0
VERTEX
  8
0
 10
-7.38095
 20
8.35836
  0
VERTEX
  8
0
 10
-7.38285
 20
8.35824
  0
VERTEX
  8
0
 10
-7.38483
 20
8.35812
  0
VERTEX
  8
0
 10
-7.38684
 20
8.35797
  0
VERTEX
  8
0
 10
-7.38893
 20
8.35782
  0
VERTEX
  8
0
 10
-7.39104
 20
8.35764
  0
VERTEX
  8
0
 10
-7.39323
 20
8.35746
  0
VERTEX
  8
0
 10
-7.39546
 20
8.35725
  0
VERTEX
  8
0
 10
-7.39777
 20
8.35706
  0
VERTEX
  8
0
 10
-7.40012
 20
8.35683
  0
VERTEX
  8
0
 10
-7.40257
 20
8.35659
  0
VERTEX
  8
0
 10
-7.4051
 20
8.35632
  0
VERTEX
  8
0
 10
-7.40775
 20
8.35604
  0
VERTEX
  8
0
 10
-7.41047
 20
8.35572
  0
VERTEX
  8
0
 10
-7.4133
 20
8.35538
  0
VERTEX
  8
0
 10
-7.41622
 20
8.35501
  0
VERTEX
  8
0
 10
-7.41924
 20
8.35463
  0
VERTEX
  8
0
 10
-7.42234
 20
8.3542
  0
VERTEX
  8
0
 10
-7.42555
 20
8.35376
  0
VERTEX
  8
0
 10
-7.42885
 20
8.35327
  0
VERTEX
  8
0
 10
-7.43227
 20
8.35277
  0
VERTEX
  8
0
 10
-7.43576
 20
8.35222
  0
VERTEX
  8
0
 10
-7.43937
 20
8.35166
  0
VERTEX
  8
0
 10
-7.44307
 20
8.35105
  0
VERTEX
  8
0
 10
-7.44033
 20
8.36976
  0
VERTEX
  8
0
 10
-7.44033
 20
8.36976
  0
VERTEX
  8
0
 10
-7.42006
 20
8.37131
  0
VERTEX
  8
0
 10
-7.40042
 20
8.37329
  0
VERTEX
  8
0
 10
-7.38141
 20
8.3757
  0
VERTEX
  8
0
 10
-7.36304
 20
8.37855
  0
VERTEX
  8
0
 10
-7.34529
 20
8.38182
  0
VERTEX
  8
0
 10
-7.32818
 20
8.38552
  0
VERTEX
  8
0
 10
-7.31169
 20
8.38964
  0
VERTEX
  8
0
 10
-7.29585
 20
8.3942
  0
VERTEX
  8
0
 10
-7.28062
 20
8.39917
  0
VERTEX
  8
0
 10
-7.26603
 20
8.40457
  0
VERTEX
  8
0
 10
-7.25207
 20
8.41039
  0
VERTEX
  8
0
 10
-7.23877
 20
8.41663
  0
VERTEX
  8
0
 10
-7.22608
 20
8.42329
  0
VERTEX
  8
0
 10
-7.21404
 20
8.43039
  0
VERTEX
  8
0
 10
-7.20262
 20
8.43789
  0
VERTEX
  8
0
 10
-7.19186
 20
8.44584
  0
VERTEX
  8
0
 10
-7.18172
 20
8.45422
  0
VERTEX
  8
0
 10
-7.17224
 20
8.46302
  0
VERTEX
  8
0
 10
-7.16342
 20
8.47221
  0
VERTEX
  8
0
 10
-7.15526
 20
8.48181
  0
VERTEX
  8
0
 10
-7.14774
 20
8.49178
  0
VERTEX
  8
0
 10
-7.1409
 20
8.50217
  0
VERTEX
  8
0
 10
-7.13469
 20
8.51295
  0
VERTEX
  8
0
 10
-7.12916
 20
8.52416
  0
VERTEX
  8
0
 10
-7.12425
 20
8.53574
  0
VERTEX
  8
0
 10
-7.12002
 20
8.54774
  0
VERTEX
  8
0
 10
-7.11642
 20
8.56014
  0
VERTEX
  8
0
 10
-7.1135
 20
8.57296
  0
VERTEX
  8
0
 10
-7.1112
 20
8.58617
  0
VERTEX
  8
0
 10
-7.10958
 20
8.59981
  0
VERTEX
  8
0
 10
-7.1086
 20
8.61384
  0
VERTEX
  8
0
 10
-7.10829
 20
8.6283
  0
VERTEX
  8
0
 10
-7.10841
 20
8.63639
  0
VERTEX
  8
0
 10
-7.1088
 20
8.64432
  0
VERTEX
  8
0
 10
-7.10943
 20
8.65209
  0
VERTEX
  8
0
 10
-7.11033
 20
8.65969
  0
VERTEX
  8
0
 10
-7.11147
 20
8.66712
  0
VERTEX
  8
0
 10
-7.11288
 20
8.67439
  0
VERTEX
  8
0
 10
-7.11455
 20
8.68149
  0
VERTEX
  8
0
 10
-7.11648
 20
8.68843
  0
VERTEX
  8
0
 10
-7.11864
 20
8.69518
  0
VERTEX
  8
0
 10
-7.12107
 20
8.70178
  0
VERTEX
  8
0
 10
-7.12374
 20
8.7082
  0
VERTEX
  8
0
 10
-7.12668
 20
8.71447
  0
VERTEX
  8
0
 10
-7.12986
 20
8.72056
  0
VERTEX
  8
0
 10
-7.13329
 20
8.72648
  0
VERTEX
  8
0
 10
-7.13698
 20
8.73223
  0
VERTEX
  8
0
 10
-7.14093
 20
8.73782
  0
VERTEX
  8
0
 10
-7.14509
 20
8.74307
  0
VERTEX
  8
0
 10
-7.14938
 20
8.748
  0
VERTEX
  8
0
 10
-7.15379
 20
8.75259
  0
VERTEX
  8
0
 10
-7.15832
 20
8.75686
  0
VERTEX
  8
0
 10
-7.16297
 20
8.76077
  0
VERTEX
  8
0
 10
-7.16774
 20
8.76435
  0
VERTEX
  8
0
 10
-7.17263
 20
8.76759
  0
VERTEX
  8
0
 10
-7.17764
 20
8.7705
  0
VERTEX
  8
0
 10
-7.18277
 20
8.77305
  0
VERTEX
  8
0
 10
-7.18802
 20
8.77528
  0
VERTEX
  8
0
 10
-7.19339
 20
8.77716
  0
VERTEX
  8
0
 10
-7.19889
 20
8.77871
  0
VERTEX
  8
0
 10
-7.2045
 20
8.7799
  0
VERTEX
  8
0
 10
-7.21023
 20
8.78077
  0
VERTEX
  8
0
 10
-7.21608
 20
8.78128
  0
VERTEX
  8
0
 10
-7.22208
 20
8.78146
  0
VERTEX
  8
0
 10
-7.22784
 20
8.78129
  0
VERTEX
  8
0
 10
-7.23348
 20
8.78084
  0
VERTEX
  8
0
 10
-7.239
 20
8.78008
  0
VERTEX
  8
0
 10
-7.24443
 20
8.77903
  0
VERTEX
  8
0
 10
-7.24971
 20
8.77765
  0
VERTEX
  8
0
 10
-7.25487
 20
8.776
  0
VERTEX
  8
0
 10
-7.25991
 20
8.77402
  0
VERTEX
  8
0
 10
-7.26484
 20
8.77177
  0
VERTEX
  8
0
 10
-7.26961
 20
8.76919
  0
VERTEX
  8
0
 10
-7.27428
 20
8.76631
  0
VERTEX
  8
0
 10
-7.27881
 20
8.76313
  0
VERTEX
  8
0
 10
-7.28322
 20
8.75965
  0
VERTEX
  8
0
 10
-7.28748
 20
8.75585
  0
VERTEX
  8
0
 10
-7.29163
 20
8.75177
  0
VERTEX
  8
0
 10
-7.29563
 20
8.74739
  0
VERTEX
  8
0
 10
-7.29952
 20
8.74271
  0
VERTEX
  8
0
 10
-7.30324
 20
8.73775
  0
VERTEX
  8
0
 10
-7.30672
 20
8.73266
  0
VERTEX
  8
0
 10
-7.30996
 20
8.7274
  0
VERTEX
  8
0
 10
-7.31299
 20
8.72201
  0
VERTEX
  8
0
 10
-7.31575
 20
8.71645
  0
VERTEX
  8
0
 10
-7.31828
 20
8.71074
  0
VERTEX
  8
0
 10
-7.32056
 20
8.70487
  0
VERTEX
  8
0
 10
-7.32263
 20
8.69886
  0
VERTEX
  8
0
 10
-7.32443
 20
8.69267
  0
VERTEX
  8
0
 10
-7.32599
 20
8.68633
  0
VERTEX
  8
0
 10
-7.32731
 20
8.67984
  0
VERTEX
  8
0
 10
-7.3284
 20
8.6732
  0
VERTEX
  8
0
 10
-7.32924
 20
8.66638
  0
VERTEX
  8
0
 10
-7.32984
 20
8.65942
  0
VERTEX
  8
0
 10
-7.3302
 20
8.6523
  0
VERTEX
  8
0
 10
-7.33034
 20
8.64502
  0
VERTEX
  8
0
 10
-7.33026
 20
8.63958
  0
VERTEX
  8
0
 10
-7.33007
 20
8.63427
  0
VERTEX
  8
0
 10
-7.32972
 20
8.62909
  0
VERTEX
  8
0
 10
-7.32926
 20
8.62405
  0
VERTEX
  8
0
 10
-7.32864
 20
8.61912
  0
VERTEX
  8
0
 10
-7.32791
 20
8.61432
  0
VERTEX
  8
0
 10
-7.32703
 20
8.60965
  0
VERTEX
  8
0
 10
-7.32603
 20
8.60512
  0
VERTEX
  8
0
 10
-7.32487
 20
8.6007
  0
VERTEX
  8
0
 10
-7.32358
 20
8.59641
  0
VERTEX
  8
0
 10
-7.32215
 20
8.59225
  0
VERTEX
  8
0
 10
-7.32061
 20
8.58823
  0
VERTEX
  8
0
 10
-7.3189
 20
8.58432
  0
VERTEX
  8
0
 10
-7.31707
 20
8.58054
  0
VERTEX
  8
0
 10
-7.31509
 20
8.57689
  0
VERTEX
  8
0
 10
-7.31299
 20
8.57338
  0
VERTEX
  8
0
 10
-7.31075
 20
8.56997
  0
VERTEX
  8
0
 10
-7.30847
 20
8.56681
  0
VERTEX
  8
0
 10
-7.3061
 20
8.56386
  0
VERTEX
  8
0
 10
-7.30368
 20
8.56115
  0
VERTEX
  8
0
 10
-7.30116
 20
8.55864
  0
VERTEX
  8
0
 10
-7.2986
 20
8.55636
  0
VERTEX
  8
0
 10
-7.29595
 20
8.5543
  0
VERTEX
  8
0
 10
-7.29325
 20
8.55248
  0
VERTEX
  8
0
 10
-7.29044
 20
8.55084
  0
VERTEX
  8
0
 10
-7.28759
 20
8.54945
  0
VERTEX
  8
0
 10
-7.28465
 20
8.54826
  0
VERTEX
  8
0
 10
-7.28165
 20
8.5473
  0
VERTEX
  8
0
 10
-7.27856
 20
8.54654
  0
VERTEX
  8
0
 10
-7.27541
 20
8.54601
  0
VERTEX
  8
0
 10
-7.27217
 20
8.54569
  0
VERTEX
  8
0
 10
-7.26887
 20
8.54559
  0
VERTEX
  8
0
 10
-7.26746
 20
8.5456
  0
VERTEX
  8
0
 10
-7.26606
 20
8.54566
  0
VERTEX
  8
0
 10
-7.26468
 20
8.54575
  0
VERTEX
  8
0
 10
-7.26331
 20
8.5459
  0
VERTEX
  8
0
 10
-7.26194
 20
8.54607
  0
VERTEX
  8
0
 10
-7.26059
 20
8.5463
  0
VERTEX
  8
0
 10
-7.25926
 20
8.54655
  0
VERTEX
  8
0
 10
-7.25795
 20
8.54687
  0
VERTEX
  8
0
 10
-7.25663
 20
8.5472
  0
VERTEX
  8
0
 10
-7.25534
 20
8.54758
  0
VERTEX
  8
0
 10
-7.25406
 20
8.548
  0
VERTEX
  8
0
 10
-7.2528
 20
8.54847
  0
VERTEX
  8
0
 10
-7.25154
 20
8.54896
  0
VERTEX
  8
0
 10
-7.25031
 20
8.5495
  0
VERTEX
  8
0
 10
-7.24908
 20
8.55007
  0
VERTEX
  8
0
 10
-7.24789
 20
8.55069
  0
VERTEX
  8
0
 10
-7.24667
 20
8.55129
  0
VERTEX
  8
0
 10
-7.24546
 20
8.55198
  0
VERTEX
  8
0
 10
-7.24423
 20
8.55271
  0
VERTEX
  8
0
 10
-7.243
 20
8.55352
  0
VERTEX
  8
0
 10
-7.24174
 20
8.55436
  0
VERTEX
  8
0
 10
-7.24049
 20
8.55529
  0
VERTEX
  8
0
 10
-7.23922
 20
8.55625
  0
VERTEX
  8
0
 10
-7.23796
 20
8.5573
  0
VERTEX
  8
0
 10
-7.23666
 20
8.55836
  0
VERTEX
  8
0
 10
-7.23537
 20
8.5595
  0
VERTEX
  8
0
 10
-7.23407
 20
8.56068
  0
VERTEX
  8
0
 10
-7.23278
 20
8.56193
  0
VERTEX
  8
0
 10
-7.23146
 20
8.56321
  0
VERTEX
  8
0
 10
-7.23015
 20
8.56456
  0
VERTEX
  8
0
 10
-7.22883
 20
8.56595
  0
VERTEX
  8
0
 10
-7.2207
 20
8.56426
  0
VERTEX
  8
0
 10
-7.2207
 20
8.56426
  0
VERTEX
  8
0
 10
-7.22243
 20
8.5585
  0
VERTEX
  8
0
 10
-7.2243
 20
8.55289
  0
VERTEX
  8
0
 10
-7.2263
 20
8.54742
  0
VERTEX
  8
0
 10
-7.22844
 20
8.5421
  0
VERTEX
  8
0
 10
-7.23071
 20
8.53691
  0
VERTEX
  8
0
 10
-7.23312
 20
8.53188
  0
VERTEX
  8
0
 10
-7.23566
 20
8.52698
  0
VERTEX
  8
0
 10
-7.23835
 20
8.52223
  0
VERTEX
  8
0
 10
-7.24115
 20
8.5176
  0
VERTEX
  8
0
 10
-7.24409
 20
8.51313
  0
VERTEX
  8
0
 10
-7.24717
 20
8.5088
  0
VERTEX
  8
0
 10
-7.25039
 20
8.50461
  0
VERTEX
  8
0
 10
-7.25372
 20
8.50055
  0
VERTEX
  8
0
 10
-7.2572
 20
8.49665
  0
VERTEX
  8
0
 10
-7.2608
 20
8.49288
  0
VERTEX
  8
0
 10
-7.26455
 20
8.48926
  0
VERTEX
  8
0
 10
-7.26838
 20
8.48575
  0
VERTEX
  8
0
 10
-7.27228
 20
8.4825
  0
VERTEX
  8
0
 10
-7.27621
 20
8.47945
  0
VERTEX
  8
0
 10
-7.2802
 20
8.47665
  0
VERTEX
  8
0
 10
-7.28422
 20
8.47405
  0
VERTEX
  8
0
 10
-7.2883
 20
8.4717
  0
VERTEX
  8
0
 10
-7.29242
 20
8.46956
  0
VERTEX
  8
0
 10
-7.29661
 20
8.46767
  0
VERTEX
  8
0
 10
-7.30081
 20
8.46597
  0
VERTEX
  8
0
 10
-7.30509
 20
8.46452
  0
VERTEX
  8
0
 10
-7.30939
 20
8.46328
  0
VERTEX
  8
0
 10
-7.31377
 20
8.46228
  0
VERTEX
  8
0
 10
-7.31818
 20
8.46148
  0
VERTEX
  8
0
 10
-7.32265
 20
8.46093
  0
VERTEX
  8
0
 10
-7.32715
 20
8.4606
  0
VERTEX
  8
0
 10
-7.33172
 20
8.4605
  0
VERTEX
  8
0
 10
-7.33661
 20
8.46062
  0
VERTEX
  8
0
 10
-7.34141
 20
8.46099
  0
VERTEX
  8
0
 10
-7.34607
 20
8.46161
  0
VERTEX
  8
0
 10
-7.35063
 20
8.46248
  0
VERTEX
  8
0
 10
-7.35505
 20
8.46359
  0
VERTEX
  8
0
 10
-7.35937
 20
8.46497
  0
VERTEX
  8
0
 10
-7.36357
 20
8.46659
  0
VERTEX
  8
0
 10
-7.36765
 20
8.46847
  0
VERTEX
  8
0
 10
-7.37161
 20
8.47058
  0
VERTEX
  8
0
 10
-7.37546
 20
8.47295
  0
VERTEX
  8
0
 10
-7.37919
 20
8.47556
  0
VERTEX
  8
0
 10
-7.38282
 20
8.47844
  0
VERTEX
  8
0
 10
-7.38633
 20
8.48155
  0
VERTEX
  8
0
 10
-7.38973
 20
8.48492
  0
VERTEX
  8
0
 10
-7.39302
 20
8.48854
  0
VERTEX
  8
0
 10
-7.39621
 20
8.49241
  0
VERTEX
  8
0
 10
-7.39918
 20
8.49652
  0
VERTEX
  8
0
 10
-7.40197
 20
8.50078
  0
VERTEX
  8
0
 10
-7.40456
 20
8.50518
  0
VERTEX
  8
0
 10
-7.40698
 20
8.50973
  0
VERTEX
  8
0
 10
-7.40918
 20
8.51441
  0
VERTEX
  8
0
 10
-7.41122
 20
8.51925
  0
VERTEX
  8
0
 10
-7.41305
 20
8.52424
  0
VERTEX
  8
0
 10
-7.4147
 20
8.52939
  0
VERTEX
  8
0
 10
-7.41614
 20
8.53466
  0
VERTEX
  8
0
 10
-7.4174
 20
8.5401
  0
VERTEX
  8
0
 10
-7.41845
 20
8.54569
  0
VERTEX
  8
0
 10
-7.41934
 20
8.55144
  0
VERTEX
  8
0
 10
-7.42001
 20
8.55733
  0
VERTEX
  8
0
 10
-7.42051
 20
8.56339
  0
VERTEX
  8
0
 10
-7.42079
 20
8.5696
  0
VERTEX
  8
0
 10
-7.4209
 20
8.57599
  0
VERTEX
  8
0
 10
-7.42058
 20
8.58716
  0
VERTEX
  8
0
 10
-7.41968
 20
8.59819
  0
VERTEX
  8
0
 10
-7.41815
 20
8.60906
  0
VERTEX
  8
0
 10
-7.41605
 20
8.61981
  0
VERTEX
  8
0
 10
-7.41331
 20
8.63038
  0
VERTEX
  8
0
 10
-7.40998
 20
8.64083
  0
VERTEX
  8
0
 10
-7.40603
 20
8.65111
  0
VERTEX
  8
0
 10
-7.4015
 20
8.66126
  0
VERTEX
  8
0
 10
-7.39633
 20
8.67124
  0
VERTEX
  8
0
 10
-7.39057
 20
8.68108
  0
VERTEX
  8
0
 10
-7.38419
 20
8.69076
  0
VERTEX
  8
0
 10
-7.37722
 20
8.70031
  0
VERTEX
  8
0
 10
-7.36962
 20
8.70969
  0
VERTEX
  8
0
 10
-7.36143
 20
8.71892
  0
VERTEX
  8
0
 10
-7.35261
 20
8.728
  0
VERTEX
  8
0
 10
-7.3432
 20
8.73695
  0
VERTEX
  8
0
 10
-7.33341
 20
8.74549
  0
VERTEX
  8
0
 10
-7.32346
 20
8.7535
  0
VERTEX
  8
0
 10
-7.31335
 20
8.76094
  0
VERTEX
  8
0
 10
-7.30309
 20
8.76785
  0
VERTEX
  8
0
 10
-7.29265
 20
8.77419
  0
VERTEX
  8
0
 10
-7.28206
 20
8.78
  0
VERTEX
  8
0
 10
-7.2713
 20
8.78523
  0
VERTEX
  8
0
 10
-7.26039
 20
8.78994
  0
VERTEX
  8
0
 10
-7.24929
 20
8.79406
  0
VERTEX
  8
0
 10
-7.23805
 20
8.79766
  0
VERTEX
  8
0
 10
-7.22664
 20
8.80069
  0
VERTEX
  8
0
 10
-7.21507
 20
8.80318
  0
VERTEX
  8
0
 10
-7.20333
 20
8.8051
  0
VERTEX
  8
0
 10
-7.19144
 20
8.8065
  0
VERTEX
  8
0
 10
-7.17938
 20
8.80732
  0
VERTEX
  8
0
 10
-7.16717
 20
8.80761
  0
VERTEX
  8
0
 10
-7.15763
 20
8.80741
  0
VERTEX
  8
0
 10
-7.14835
 20
8.80684
  0
VERTEX
  8
0
 10
-7.13927
 20
8.80589
  0
VERTEX
  8
0
 10
-7.13045
 20
8.80458
  0
VERTEX
  8
0
 10
-7.12184
 20
8.80287
  0
VERTEX
  8
0
 10
-7.11347
 20
8.80079
  0
VERTEX
  8
0
 10
-7.10531
 20
8.79833
  0
VERTEX
  8
0
 10
-7.09741
 20
8.7955
  0
VERTEX
  8
0
 10
-7.0897
 20
8.79227
  0
VERTEX
  8
0
 10
-7.08225
 20
8.78867
  0
VERTEX
  8
0
 10
-7.075
 20
8.78467
  0
VERTEX
  8
0
 10
-7.06801
 20
8.78031
  0
VERTEX
  8
0
 10
-7.06121
 20
8.77555
  0
VERTEX
  8
0
 10
-7.05467
 20
8.77042
  0
VERTEX
  8
0
 10
-7.04834
 20
8.76489
  0
VERTEX
  8
0
 10
-7.04225
 20
8.75899
  0
VERTEX
  8
0
 10
-7.03646
 20
8.75284
  0
VERTEX
  8
0
 10
-7.03106
 20
8.74646
  0
VERTEX
  8
0
 10
-7.02602
 20
8.73986
  0
VERTEX
  8
0
 10
-7.02136
 20
8.73303
  0
VERTEX
  8
0
 10
-7.01706
 20
8.72596
  0
VERTEX
  8
0
 10
-7.01313
 20
8.71867
  0
VERTEX
  8
0
 10
-7.00958
 20
8.71114
  0
VERTEX
  8
0
 10
-7.00641
 20
8.7034
  0
VERTEX
  8
0
 10
-7.00359
 20
8.69541
  0
VERTEX
  8
0
 10
-7.00116
 20
8.6872
  0
VERTEX
  8
0
 10
-6.9991
 20
8.67877
  0
VERTEX
  8
0
 10
-6.99742
 20
8.67011
  0
VERTEX
  8
0
 10
-6.9961
 20
8.66121
  0
VERTEX
  8
0
 10
-6.99517
 20
8.65209
  0
VERTEX
  8
0
 10
-6.9946
 20
8.64275
  0
VERTEX
  8
0
 10
-6.99442
 20
8.63319
  0
VERTEX
  8
0
 10
-6.9947
 20
8.62074
  0
VERTEX
  8
0
 10
-6.99558
 20
8.60859
  0
VERTEX
  8
0
 10
-6.99703
 20
8.59674
  0
VERTEX
  8
0
 10
-6.99909
 20
8.5852
  0
VERTEX
  8
0
 10
-7.00171
 20
8.57395
  0
VERTEX
  8
0
 10
-7.00494
 20
8.56303
  0
VERTEX
  8
0
 10
-7.00873
 20
8.55241
  0
VERTEX
  8
0
 10
-7.01314
 20
8.5421
  0
VERTEX
  8
0
 10
-7.0181
 20
8.53208
  0
VERTEX
  8
0
 10
-7.02368
 20
8.52239
  0
VERTEX
  8
0
 10
-7.02983
 20
8.513
  0
VERTEX
  8
0
 10
-7.03658
 20
8.50394
  0
VERTEX
  8
0
 10
-7.0439
 20
8.49518
  0
VERTEX
  8
0
 10
-7.05183
 20
8.48674
  0
VERTEX
  8
0
 10
-7.06033
 20
8.47861
  0
VERTEX
  8
0
 10
-7.06944
 20
8.47081
  0
VERTEX
  8
0
 10
-7.07912
 20
8.46323
  0
VERTEX
  8
0
 10
-7.08947
 20
8.45591
  0
VERTEX
  8
0
 10
-7.10046
 20
8.44883
  0
VERTEX
  8
0
 10
-7.11212
 20
8.44201
  0
VERTEX
  8
0
 10
-7.12441
 20
8.43543
  0
VERTEX
  8
0
 10
-7.13737
 20
8.4291
  0
VERTEX
  8
0
 10
-7.15097
 20
8.42303
  0
VERTEX
  8
0
 10
-7.16525
 20
8.41721
  0
VERTEX
  8
0
 10
-7.18016
 20
8.41163
  0
VERTEX
  8
0
 10
-7.19573
 20
8.4063
  0
VERTEX
  8
0
 10
-7.21196
 20
8.40123
  0
VERTEX
  8
0
 10
-7.22885
 20
8.39643
  0
VERTEX
  8
0
 10
-7.24637
 20
8.39187
  0
VERTEX
  8
0
 10
-7.26458
 20
8.38757
  0
VERTEX
  8
0
 10
-7.28344
 20
8.38352
  0
VERTEX
  8
0
 10
-7.30435
 20
8.36976
  0
VERTEX
  8
0
 10
-7.30435
 20
8.36976
  0
VERTEX
  8
0
 10
-7.30357
 20
8.36985
  0
VERTEX
  8
0
 10
-7.30279
 20
8.36994
  0
VERTEX
  8
0
 10
-7.30201
 20
8.37002
  0
VERTEX
  8
0
 10
-7.30123
 20
8.37011
  0
VERTEX
  8
0
 10
-7.30043
 20
8.37017
  0
VERTEX
  8
0
 10
-7.29965
 20
8.37026
  0
VERTEX
  8
0
 10
-7.29886
 20
8.37032
  0
VERTEX
  8
0
 10
-7.29808
 20
8.37041
  0
VERTEX
  8
0
 10
-7.29727
 20
8.37047
  0
VERTEX
  8
0
 10
-7.29647
 20
8.37053
  0
VERTEX
  8
0
 10
-7.29565
 20
8.37059
  0
VERTEX
  8
0
 10
-7.29484
 20
8.37065
  0
VERTEX
  8
0
 10
-7.294
 20
8.37068
  0
VERTEX
  8
0
 10
-7.29318
 20
8.37074
  0
VERTEX
  8
0
 10
-7.29233
 20
8.37078
  0
VERTEX
  8
0
 10
-7.29149
 20
8.37084
  0
VERTEX
  8
0
 10
-7.29065
 20
8.37089
  0
VERTEX
  8
0
 10
-7.28975
 20
8.37095
  0
VERTEX
  8
0
 10
-7.2888
 20
8.37101
  0
VERTEX
  8
0
 10
-7.28781
 20
8.37107
  0
VERTEX
  8
0
 10
-7.28675
 20
8.37111
  0
VERTEX
  8
0
 10
-7.28564
 20
8.37117
  0
VERTEX
  8
0
 10
-7.28447
 20
8.37122
  0
VERTEX
  8
0
 10
-7.28325
 20
8.37128
  0
VERTEX
  8
0
 10
-7.28196
 20
8.37131
  0
VERTEX
  8
0
 10
-7.28063
 20
8.37135
  0
VERTEX
  8
0
 10
-7.27923
 20
8.37138
  0
VERTEX
  8
0
 10
-7.27779
 20
8.37143
  0
VERTEX
  8
0
 10
-7.27629
 20
8.37144
  0
VERTEX
  8
0
 10
-7.27473
 20
8.37147
  0
VERTEX
  8
0
 10
-7.27311
 20
8.37147
  0
VERTEX
  8
0
 10
-7.27146
 20
8.37149
  0
VERTEX
  8
0
 10
-7.26271
 20
8.37129
  0
VERTEX
  8
0
 10
-7.25421
 20
8.37074
  0
VERTEX
  8
0
 10
-7.24591
 20
8.3698
  0
VERTEX
  8
0
 10
-7.23786
 20
8.36851
  0
VERTEX
  8
0
 10
-7.23001
 20
8.36683
  0
VERTEX
  8
0
 10
-7.22239
 20
8.36481
  0
VERTEX
  8
0
 10
-7.21499
 20
8.36241
  0
VERTEX
  8
0
 10
-7.20784
 20
8.35965
  0
VERTEX
  8
0
 10
-7.20088
 20
8.3565
  0
VERTEX
  8
0
 10
-7.19416
 20
8.353
  0
VERTEX
  8
0
 10
-7.18765
 20
8.34913
  0
VERTEX
  8
0
 10
-7.18138
 20
8.34492
  0
VERTEX
  8
0
 10
-7.17532
 20
8.34031
  0
VERTEX
  8
0
 10
-7.1695
 20
8.33536
  0
VERTEX
  8
0
 10
-7.1639
 20
8.33005
  0
VERTEX
  8
0
 10
-7.15854
 20
8.32438
  0
VERTEX
  8
0
 10
-7.15341
 20
8.31836
  0
VERTEX
  8
0
 10
-7.14862
 20
8.31212
  0
VERTEX
  8
0
 10
-7.14416
 20
8.30561
  0
VERTEX
  8
0
 10
-7.14004
 20
8.29888
  0
VERTEX
  8
0
 10
-7.13623
 20
8.29187
  0
VERTEX
  8
0
 10
-7.13276
 20
8.28464
  0
VERTEX
  8
0
 10
-7.12962
 20
8.27715
  0
VERTEX
  8
0
 10
-7.12682
 20
8.26944
  0
VERTEX
  8
0
 10
-7.12432
 20
8.26146
  0
VERTEX
  8
0
 10
-7.12217
 20
8.25324
  0
VERTEX
  8
0
 10
-7.12035
 20
8.24477
  0
VERTEX
  8
0
 10
-7.11887
 20
8.23607
  0
VERTEX
  8
0
 10
-7.11771
 20
8.2271
  0
VERTEX
  8
0
 10
-7.11689
 20
8.21792
  0
VERTEX
  8
0
 10
-7.11639
 20
8.20847
  0
VERTEX
  8
0
 10
-7.11623
 20
8.1988
  0
VERTEX
  8
0
 10
-7.11663
 20
8.1833
  0
VERTEX
  8
0
 10
-7.11787
 20
8.16811
  0
VERTEX
  8
0
 10
-7.11992
 20
8.15318
  0
VERTEX
  8
0
 10
-7.12282
 20
8.13856
  0
VERTEX
  8
0
 10
-7.12652
 20
8.1242
  0
VERTEX
  8
0
 10
-7.13105
 20
8.11016
  0
VERTEX
  8
0
 10
-7.1364
 20
8.09639
  0
VERTEX
  8
0
 10
-7.1426
 20
8.08293
  0
VERTEX
  8
0
 10
-7.14959
 20
8.06973
  0
VERTEX
  8
0
 10
-7.15741
 20
8.05684
  0
VERTEX
  8
0
 10
-7.16605
 20
8.04423
  0
VERTEX
  8
0
 10
-7.17552
 20
8.03193
  0
VERTEX
  8
0
 10
-7.18579
 20
8.0199
  0
VERTEX
  8
0
 10
-7.19689
 20
8.00818
  0
VERTEX
  8
0
 10
-7.20881
 20
7.99675
  0
VERTEX
  8
0
 10
-7.22156
 20
7.98562
  0
VERTEX
  8
0
 10
-7.23495
 20
7.97496
  0
VERTEX
  8
0
 10
-7.24877
 20
7.965
  0
VERTEX
  8
0
 10
-7.26299
 20
7.95572
  0
VERTEX
  8
0
 10
-7.27763
 20
7.94715
  0
VERTEX
  8
0
 10
-7.29266
 20
7.93924
  0
VERTEX
  8
0
 10
-7.30811
 20
7.93203
  0
VERTEX
  8
0
 10
-7.32395
 20
7.92551
  0
VERTEX
  8
0
 10
-7.34022
 20
7.91968
  0
VERTEX
  8
0
 10
-7.35687
 20
7.91451
  0
VERTEX
  8
0
 10
-7.37396
 20
7.91005
  0
VERTEX
  8
0
 10
-7.39143
 20
7.90628
  0
VERTEX
  8
0
 10
-7.40934
 20
7.9032
  0
VERTEX
  8
0
 10
-7.42764
 20
7.90079
  0
VERTEX
  8
0
 10
-7.44636
 20
7.89907
  0
VERTEX
  8
0
 10
-7.46549
 20
7.89804
  0
VERTEX
  8
0
 10
-7.48505
 20
7.89771
  0
VERTEX
  8
0
 10
-7.49909
 20
7.89793
  0
VERTEX
  8
0
 10
-7.51277
 20
7.89862
  0
VERTEX
  8
0
 10
-7.52609
 20
7.89976
  0
VERTEX
  8
0
 10
-7.53905
 20
7.90137
  0
VERTEX
  8
0
 10
-7.55162
 20
7.90342
  0
VERTEX
  8
0
 10
-7.56386
 20
7.90594
  0
VERTEX
  8
0
 10
-7.57573
 20
7.90891
  0
VERTEX
  8
0
 10
-7.58725
 20
7.91235
  0
VERTEX
  8
0
 10
-7.59838
 20
7.91623
  0
VERTEX
  8
0
 10
-7.60918
 20
7.92058
  0
VERTEX
  8
0
 10
-7.61959
 20
7.92539
  0
VERTEX
  8
0
 10
-7.62967
 20
7.93067
  0
VERTEX
  8
0
 10
-7.63936
 20
7.93638
  0
VERTEX
  8
0
 10
-7.64872
 20
7.94257
  0
VERTEX
  8
0
 10
-7.65771
 20
7.94921
  0
VERTEX
  8
0
 10
-7.66635
 20
7.95632
  0
VERTEX
  8
0
 10
-7.67447
 20
7.96373
  0
VERTEX
  8
0
 10
-7.68207
 20
7.97145
  0
VERTEX
  8
0
 10
-7.68914
 20
7.97949
  0
VERTEX
  8
0
 10
-7.6957
 20
7.98784
  0
VERTEX
  8
0
 10
-7.70173
 20
7.99648
  0
VERTEX
  8
0
 10
-7.70725
 20
8.00544
  0
VERTEX
  8
0
 10
-7.71223
 20
8.01469
  0
VERTEX
  8
0
 10
-7.7167
 20
8.02426
  0
VERTEX
  8
0
 10
-7.72063
 20
8.0341
  0
VERTEX
  8
0
 10
-7.72405
 20
8.04426
  0
VERTEX
  8
0
 10
-7.72693
 20
8.0547
  0
VERTEX
  8
0
 10
-7.7293
 20
8.06547
  0
VERTEX
  8
0
 10
-7.73113
 20
8.07651
  0
VERTEX
  8
0
 10
-7.73245
 20
8.08786
  0
VERTEX
  8
0
 10
-7.73324
 20
8.09948
  0
VERTEX
  8
0
 10
-7.73351
 20
8.11142
  0
VERTEX
  8
0
 10
-7.73336
 20
8.12036
  0
VERTEX
  8
0
 10
-7.73292
 20
8.12914
  0
VERTEX
  8
0
 10
-7.7322
 20
8.13771
  0
VERTEX
  8
0
 10
-7.73119
 20
8.14611
  0
VERTEX
  8
0
 10
-7.72989
 20
8.1543
  0
VERTEX
  8
0
 10
-7.7283
 20
8.16231
  0
VERTEX
  8
0
 10
-7.72643
 20
8.17011
  0
VERTEX
  8
0
 10
-7.72428
 20
8.17775
  0
VERTEX
  8
0
 10
-7.72182
 20
8.18516
  0
VERTEX
  8
0
 10
-7.71909
 20
8.19241
  0
VERTEX
  8
0
 10
-7.71607
 20
8.19944
  0
VERTEX
  8
0
 10
-7.71278
 20
8.20631
  0
VERTEX
  8
0
 10
-7.70918
 20
8.21296
  0
VERTEX
  8
0
 10
-7.70532
 20
8.21944
  0
VERTEX
  8
0
 10
-7.70117
 20
8.22571
  0
VERTEX
  8
0
 10
-7.69674
 20
8.2318
  0
VERTEX
  8
0
 10
-7.69202
 20
8.23758
  0
VERTEX
  8
0
 10
-7.68718
 20
8.24301
  0
VERTEX
  8
0
 10
-7.68218
 20
8.24805
  0
VERTEX
  8
0
 10
-7.67704
 20
8.25274
  0
VERTEX
  8
0
 10
-7.67174
 20
8.25704
  0
VERTEX
  8
0
 10
-7.6663
 20
8.26099
  0
VERTEX
  8
0
 10
-7.66071
 20
8.26454
  0
VERTEX
  8
0
 10
-7.65499
 20
8.26774
  0
VERTEX
  8
0
 10
-7.64909
 20
8.27054
  0
VERTEX
  8
0
 10
-7.64305
 20
8.27299
  0
VERTEX
  8
0
 10
-7.63686
 20
8.27505
  0
VERTEX
  8
0
 10
-7.63053
 20
8.27675
  0
VERTEX
  8
0
 10
-7.62403
 20
8.27805
  0
VERTEX
  8
0
 10
-7.61739
 20
8.279
  0
VERTEX
  8
0
 10
-7.6106
 20
8.27957
  0
VERTEX
  8
0
 10
-7.60367
 20
8.27977
  0
VERTEX
  8
0
 10
-7.59914
 20
8.27968
  0
VERTEX
  8
0
 10
-7.59469
 20
8.27944
  0
VERTEX
  8
0
 10
-7.59026
 20
8.27904
  0
VERTEX
  8
0
 10
-7.5859
 20
8.27848
  0
VERTEX
  8
0
 10
-7.58156
 20
8.27775
  0
VERTEX
  8
0
 10
-7.57728
 20
8.27687
  0
VERTEX
  8
0
 10
-7.57303
 20
8.27582
  0
VERTEX
  8
0
 10
-7.56885
 20
8.27462
  0
VERTEX
  8
0
 10
-7.56468
 20
8.27324
  0
VERTEX
  8
0
 10
-7.56057
 20
8.27171
  0
VERTEX
  8
0
 10
-7.55649
 20
8.27002
  0
VERTEX
  8
0
 10
-7.55247
 20
8.26817
  0
VERTEX
  8
0
 10
-7.54847
 20
8.26615
  0
VERTEX
  8
0
 10
-7.54453
 20
8.26398
  0
VERTEX
  8
0
 10
-7.54061
 20
8.26164
  0
VERTEX
  8
0
 10
-7.53676
 20
8.25915
  0
VERTEX
  8
0
 10
-7.53293
 20
8.25652
  0
VERTEX
  8
0
 10
-7.52922
 20
8.25379
  0
VERTEX
  8
0
 10
-7.5256
 20
8.25093
  0
VERTEX
  8
0
 10
-7.52211
 20
8.24796
  0
VERTEX
  8
0
 10
-7.51869
 20
8.24484
  0
VERTEX
  8
0
 10
-7.51539
 20
8.24162
  0
VERTEX
  8
0
 10
-7.51219
 20
8.23826
  0
VERTEX
  8
0
 10
-7.5091
 20
8.2348
  0
VERTEX
  8
0
 10
-7.50608
 20
8.23118
  0
VERTEX
  8
0
 10
-7.50319
 20
8.22746
  0
VERTEX
  8
0
 10
-7.50038
 20
8.22359
  0
VERTEX
  8
0
 10
-7.49768
 20
8.21963
  0
VERTEX
  8
0
 10
-7.49506
 20
8.21552
  0
VERTEX
  8
0
 10
-7.49255
 20
8.2113
  0
VERTEX
  8
0
 10
-7.49013
 20
8.20695
  0
VERTEX
  8
0
 10
-7.49377
 20
8.19739
  0
SEQEND
  8
0
  0
POLYLINE
  8
0
 66
     1
  0
VERTEX
  8
0
 10
-8.33698
 20
2.67334
  0
VERTEX
  8
0
 10
-8.02299
 20
3.31635
  0
VERTEX
  8
0
 10
-8.02299
 20
3.31635
  0
VERTEX
  8
0
 10
-8.02228
 20
3.3178
  0
VERTEX
  8
0
 10
-8.02139
 20
3.31959
  0
VERTEX
  8
0
 10
-8.02029
 20
3.32171
  0
VERTEX
  8
0
 10
-8.01902
 20
3.32418
  0
VERTEX
  8
0
 10
-8.01753
 20
3.32695
  0
VERTEX
  8
0
 10
-8.01586
 20
3.33008
  0
VERTEX
  8
0
 10
-8.01398
 20
3.33352
  0
VERTEX
  8
0
 10
-8.01193
 20
3.33731
  0
VERTEX
  8
0
 10
-8.00965
 20
3.34141
  0
VERTEX
  8
0
 10
-8.00719
 20
3.34586
  0
VERTEX
  8
0
 10
-8.00452
 20
3.35064
  0
VERTEX
  8
0
 10
-8.00166
 20
3.35577
  0
VERTEX
  8
0
 10
-7.99858
 20
3.36122
  0
VERTEX
  8
0
 10
-7.99532
 20
3.36702
  0
VERTEX
  8
0
 10
-7.99185
 20
3.37315
  0
VERTEX
  8
0
 10
-7.97749
 20
3.39743
  0
VERTEX
  8
0
 10
-7.97749
 20
3.39743
  0
VERTEX
  8
0
 10
-7.98624
 20
3.39151
  0
VERTEX
  8
0
 10
-7.99515
 20
3.38565
  0
VERTEX
  8
0
 10
-8.00419
 20
3.37981
  0
VERTEX
  8
0
 10
-8.01338
 20
3.37402
  0
VERTEX
  8
0
 10
-8.0227
 20
3.36825
  0
VERTEX
  8
0
 10
-8.03217
 20
3.36253
  0
VERTEX
  8
0
 10
-8.04177
 20
3.35683
  0
VERTEX
  8
0
 10
-8.05153
 20
3.35118
  0
VERTEX
  8
0
 10
-8.0614
 20
3.34553
  0
VERTEX
  8
0
 10
-8.07142
 20
3.33993
  0
VERTEX
  8
0
 10
-8.08158
 20
3.33436
  0
VERTEX
  8
0
 10
-8.09188
 20
3.32882
  0
VERTEX
  8
0
 10
-8.10231
 20
3.32329
  0
VERTEX
  8
0
 10
-8.11288
 20
3.3178
  0
VERTEX
  8
0
 10
-8.12358
 20
3.31233
  0
VERTEX
  8
0
 10
-8.13444
 20
3.3069
  0
VERTEX
  8
0
 10
-8.14538
 20
3.30149
  0
VERTEX
  8
0
 10
-8.15639
 20
3.29618
  0
VERTEX
  8
0
 10
-8.16745
 20
3.29093
  0
VERTEX
  8
0
 10
-8.17858
 20
3.28578
  0
VERTEX
  8
0
 10
-8.18974
 20
3.2807
  0
VERTEX
  8
0
 10
-8.20097
 20
3.2757
  0
VERTEX
  8
0
 10
-8.21225
 20
3.27077
  0
VERTEX
  8
0
 10
-8.22359
 20
3.26592
  0
VERTEX
  8
0
 10
-8.23496
 20
3.26114
  0
VERTEX
  8
0
 10
-8.2464
 20
3.25644
  0
VERTEX
  8
0
 10
-8.25789
 20
3.25181
  0
VERTEX
  8
0
 10
-8.26945
 20
3.24727
  0
VERTEX
  8
0
 10
-8.28103
 20
3.24279
  0
VERTEX
  8
0
 10
-8.29269
 20
3.23839
  0
VERTEX
  8
0
 10
-8.30439
 20
3.23407
  0
VERTEX
  8
0
 10
-8.32023
 20
3.24916
  0
VERTEX
  8
0
 10
-8.32023
 20
3.24916
  0
VERTEX
  8
0
 10
-8.30218
 20
3.25478
  0
VERTEX
  8
0
 10
-8.28423
 20
3.26072
  0
VERTEX
  8
0
 10
-8.26636
 20
3.26693
  0
VERTEX
  8
0
 10
-8.24859
 20
3.27345
  0
VERTEX
  8
0
 10
-8.23089
 20
3.28023
  0
VERTEX
  8
0
 10
-8.21329
 20
3.28733
  0
VERTEX
  8
0
 10
-8.19578
 20
3.29469
  0
VERTEX
  8
0
 10
-8.17837
 20
3.30237
  0
VERTEX
  8
0
 10
-8.16102
 20
3.31031
  0
VERTEX
  8
0
 10
-8.14377
 20
3.31856
  0
VERTEX
  8
0
 10
-8.1266
 20
3.32708
  0
VERTEX
  8
0
 10
-8.10954
 20
3.33591
  0
VERTEX
  8
0
 10
-8.09255
 20
3.34501
  0
VERTEX
  8
0
 10
-8.07566
 20
3.35442
  0
VERTEX
  8
0
 10
-8.05885
 20
3.3641
  0
VERTEX
  8
0
 10
-8.04215
 20
3.37409
  0
VERTEX
  8
0
 10
-8.02546
 20
3.38443
  0
VERTEX
  8
0
 10
-8.00884
 20
3.39508
  0
VERTEX
  8
0
 10
-7.99228
 20
3.40604
  0
VERTEX
  8
0
 10
-7.97578
 20
3.41732
  0
VERTEX
  8
0
 10
-7.95932
 20
3.4289
  0
VERTEX
  8
0
 10
-7.94294
 20
3.44079
  0
VERTEX
  8
0
 10
-7.92661
 20
3.45299
  0
VERTEX
  8
0
 10
-7.91035
 20
3.4655
  0
VERTEX
  8
0
 10
-7.89412
 20
3.47831
  0
VERTEX
  8
0
 10
-7.87795
 20
3.49143
  0
VERTEX
  8
0
 10
-7.86184
 20
3.50486
  0
VERTEX
  8
0
 10
-7.84579
 20
3.5186
  0
VERTEX
  8
0
 10
-7.82977
 20
3.53264
  0
VERTEX
  8
0
 10
-7.81384
 20
3.54699
  0
VERTEX
  8
0
 10
-7.79794
 20
3.56165
  0
VERTEX
  8
0
 10
-7.76934
 20
3.56491
  0
VERTEX
  8
0
 10
-8.18495
 20
2.69776
  0
VERTEX
  8
0
 10
-8.06253
 20
2.70959
  0
VERTEX
  8
0
 10
-8.0671
 20
2.69353
  0
VERTEX
  8
0
 10
-8.0671
 20
2.69353
  0
VERTEX
  8
0
 10
-8.07298
 20
2.69312
  0
VERTEX
  8
0
 10
-8.07895
 20
2.69272
  0
VERTEX
  8
0
 10
-8.08498
 20
2.6923
  0
VERTEX
  8
0
 10
-8.0911
 20
2.69188
  0
VERTEX
  8
0
 10
-8.09727
 20
2.69143
  0
VERTEX
  8
0
 10
-8.10351
 20
2.69098
  0
VERTEX
  8
0
 10
-8.10982
 20
2.69051
  0
VERTEX
  8
0
 10
-8.11621
 20
2.69006
  0
VERTEX
  8
0
 10
-8.12265
 20
2.68957
  0
VERTEX
  8
0
 10
-8.12916
 20
2.68909
  0
VERTEX
  8
0
 10
-8.13574
 20
2.68858
  0
VERTEX
  8
0
 10
-8.1424
 20
2.6881
  0
VERTEX
  8
0
 10
-8.14912
 20
2.68758
  0
VERTEX
  8
0
 10
-8.1559
 20
2.68707
  0
VERTEX
  8
0
 10
-8.16274
 20
2.68655
  0
VERTEX
  8
0
 10
-8.16967
 20
2.68604
  0
VERTEX
  8
0
 10
-8.17682
 20
2.68546
  0
VERTEX
  8
0
 10
-8.18442
 20
2.68488
  0
VERTEX
  8
0
 10
-8.19246
 20
2.68426
  0
VERTEX
  8
0
 10
-8.20095
 20
2.68362
  0
VERTEX
  8
0
 10
-8.20986
 20
2.68294
  0
VERTEX
  8
0
 10
-8.21922
 20
2.68224
  0
VERTEX
  8
0
 10
-8.22902
 20
2.6815
  0
VERTEX
  8
0
 10
-8.23927
 20
2.68074
  0
VERTEX
  8
0
 10
-8.24994
 20
2.67992
  0
VERTEX
  8
0
 10
-8.26105
 20
2.67909
  0
VERTEX
  8
0
 10
-8.2726
 20
2.67822
  0
VERTEX
  8
0
 10
-8.2846
 20
2.67733
  0
VERTEX
  8
0
 10
-8.29703
 20
2.67638
  0
VERTEX
  8
0
 10
-8.30991
 20
2.6754
  0
VERTEX
  8
0
 10
-8.32322
 20
2.67438
  0
SEQEND
  8
0
  0
POLYLINE
  8
0
 66
     1
  0
VERTEX
  8
0
 10
-7.76658
 20
2.74921
  0
VERTEX
  8
0
 10
-7.76658
 20
2.74921
  0
VERTEX
  8
0
 10
-7.76749
 20
2.74744
  0
VERTEX
  8
0
 10
-7.76845
 20
2.74561
  0
VERTEX
  8
0
 10
-7.76944
 20
2.74371
  0
VERTEX
  8
0
 10
-7.77048
 20
2.74176
  0
VERTEX
  8
0
 10
-7.77154
 20
2.73972
  0
VERTEX
  8
0
 10
-7.77266
 20
2.73763
  0
VERTEX
  8
0
 10
-7.77381
 20
2.73547
  0
VERTEX
  8
0
 10
-7.77502
 20
2.73325
  0
VERTEX
  8
0
 10
-7.77623
 20
2.73094
  0
VERTEX
  8
0
 10
-7.77751
 20
2.72859
  0
VERTEX
  8
0
 10
-7.77881
 20
2.72616
  0
VERTEX
  8
0
 10
-7.78018
 20
2.72368
  0
VERTEX
  8
0
 10
-7.78156
 20
2.72111
  0
VERTEX
  8
0
 10
-7.783
 20
2.7185
  0
VERTEX
  8
0
 10
-7.78447
 20
2.7158
  0
VERTEX
  8
0
 10
-7.786
 20
2.71307
  0
VERTEX
  8
0
 10
-7.78958
 20
2.70632
  0
VERTEX
  8
0
 10
-7.79308
 20
2.70002
  0
VERTEX
  8
0
 10
-7.79649
 20
2.69415
  0
VERTEX
  8
0
 10
-7.79982
 20
2.68873
  0
VERTEX
  8
0
 10
-7.80304
 20
2.68374
  0
VERTEX
  8
0
 10
-7.80618
 20
2.67919
  0
VERTEX
  8
0
 10
-7.80922
 20
2.67507
  0
VERTEX
  8
0
 10
-7.81217
 20
2.67141
  0
VERTEX
  8
0
 10
-7.81501
 20
2.66816
  0
VERTEX
  8
0
 10
-7.81776
 20
2.66535
  0
VERTEX
  8
0
 10
-7.8204
 20
2.66297
  0
VERTEX
  8
0
 10
-7.82296
 20
2.66104
  0
VERTEX
  8
0
 10
-7.82541
 20
2.65953
  0
VERTEX
  8
0
 10
-7.82777
 20
2.65845
  0
VERTEX
  8
0
 10
-7.83002
 20
2.65781
  0
VERTEX
  8
0
 10
-7.83219
 20
2.6576
  0
VERTEX
  8
0
 10
-7.83314
 20
2.65765
  0
VERTEX
  8
0
 10
-7.83408
 20
2.65777
  0
VERTEX
  8
0
 10
-7.83499
 20
2.65792
  0
VERTEX
  8
0
 10
-7.83587
 20
2.65813
  0
VERTEX
  8
0
 10
-7.8367
 20
2.65836
  0
VERTEX
  8
0
 10
-7.83751
 20
2.65865
  0
VERTEX
  8
0
 10
-7.83828
 20
2.65898
  0
VERTEX
  8
0
 10
-7.83904
 20
2.65936
  0
VERTEX
  8
0
 10
-7.83974
 20
2.65975
  0
VERTEX
  8
0
 10
-7.84042
 20
2.6602
  0
VERTEX
  8
0
 10
-7.84107
 20
2.66067
  0
VERTEX
  8
0
 10
-7.8417
 20
2.66119
  0
VERTEX
  8
0
 10
-7.84227
 20
2.66173
  0
VERTEX
  8
0
 10
-7.84282
 20
2.66231
  0
VERTEX
  8
0
 10
-7.84334
 20
2.66292
  0
VERTEX
  8
0
 10
-7.84384
 20
2.66357
  0
VERTEX
  8
0
 10
-7.84428
 20
2.66428
  0
VERTEX
  8
0
 10
-7.8447
 20
2.66503
  0
VERTEX
  8
0
 10
-7.84508
 20
2.6658
  0
VERTEX
  8
0
 10
-7.84545
 20
2.66662
  0
VERTEX
  8
0
 10
-7.84577
 20
2.66744
  0
VERTEX
  8
0
 10
-7.84608
 20
2.6683
  0
VERTEX
  8
0
 10
-7.84634
 20
2.66919
  0
VERTEX
  8
0
 10
-7.84659
 20
2.67012
  0
VERTEX
  8
0
 10
-7.84679
 20
2.67106
  0
VERTEX
  8
0
 10
-7.84698
 20
2.67204
  0
VERTEX
  8
0
 10
-7.84712
 20
2.67304
  0
VERTEX
  8
0
 10
-7.84725
 20
2.67408
  0
VERTEX
  8
0
 10
-7.84733
 20
2.67514
  0
VERTEX
  8
0
 10
-7.84741
 20
2.67624
  0
VERTEX
  8
0
 10
-7.84745
 20
2.67737
  0
VERTEX
  8
0
 10
-7.84747
 20
2.67855
  0
VERTEX
  8
0
 10
-7.84719
 20
2.68158
  0
VERTEX
  8
0
 10
-7.84638
 20
2.68486
  0
VERTEX
  8
0
 10
-7.84503
 20
2.6884
  0
VERTEX
  8
0
 10
-7.84314
 20
2.69221
  0
VERTEX
  8
0
 10
-7.84071
 20
2.69626
  0
VERTEX
  8
0
 10
-7.83774
 20
2.70056
  0
VERTEX
  8
0
 10
-7.83423
 20
2.70512
  0
VERTEX
  8
0
 10
-7.83019
 20
2.70995
  0
VERTEX
  8
0
 10
-7.8256
 20
2.71501
  0
VERTEX
  8
0
 10
-7.82048
 20
2.72033
  0
VERTEX
  8
0
 10
-7.81481
 20
2.72591
  0
VERTEX
  8
0
 10
-7.80863
 20
2.73174
  0
VERTEX
  8
0
 10
-7.80189
 20
2.73781
  0
VERTEX
  8
0
 10
-7.79463
 20
2.74414
  0
VERTEX
  8
0
 10
-7.78683
 20
2.75073
  0
VERTEX
  8
0
 10
-7.77849
 20
2.75757
  0
VERTEX
  8
0
 10
-7.7696
 20
2.76462
  0
VERTEX
  8
0
 10
-7.76019
 20
2.77191
  0
VERTEX
  8
0
 10
-7.75026
 20
2.77944
  0
VERTEX
  8
0
 10
-7.73981
 20
2.78721
  0
VERTEX
  8
0
 10
-7.72882
 20
2.79519
  0
VERTEX
  8
0
 10
-7.71731
 20
2.80344
  0
VERTEX
  8
0
 10
-7.70527
 20
2.81192
  0
VERTEX
  8
0
 10
-7.69271
 20
2.82065
  0
VERTEX
  8
0
 10
-7.6796
 20
2.82959
  0
VERTEX
  8
0
 10
-7.66596
 20
2.83878
  0
VERTEX
  8
0
 10
-7.6518
 20
2.8482
  0
VERTEX
  8
0
 10
-7.63711
 20
2.85788
  0
VERTEX
  8
0
 10
-7.62188
 20
2.86776
  0
VERTEX
  8
0
 10
-7.60613
 20
2.8779
  0
VERTEX
  8
0
 10
-7.58984
 20
2.88827
  0
VERTEX
  8
0
 10
-7.57302
 20
2.89889
  0
VERTEX
  8
0
 10
-7.56983
 20
2.90092
  0
VERTEX
  8
0
 10
-7.56647
 20
2.90307
  0
VERTEX
  8
0
 10
-7.56291
 20
2.90531
  0
VERTEX
  8
0
 10
-7.55918
 20
2.90767
  0
VERTEX
  8
0
 10
-7.55524
 20
2.9101
  0
VERTEX
  8
0
 10
-7.55113
 20
2.91265
  0
VERTEX
  8
0
 10
-7.54681
 20
2.91529
  0
VERTEX
  8
0
 10
-7.54232
 20
2.91804
  0
VERTEX
  8
0
 10
-7.53761
 20
2.92087
  0
VERTEX
  8
0
 10
-7.53274
 20
2.9238
  0
VERTEX
  8
0
 10
-7.52766
 20
2.92682
  0
VERTEX
  8
0
 10
-7.52241
 20
2.92996
  0
VERTEX
  8
0
 10
-7.51695
 20
2.93317
  0
VERTEX
  8
0
 10
-7.51131
 20
2.93649
  0
VERTEX
  8
0
 10
-7.50547
 20
2.93989
  0
VERTEX
  8
0
 10
-7.49946
 20
2.94339
  0
VERTEX
  8
0
 10
-7.48472
 20
2.95202
  0
VERTEX
  8
0
 10
-7.47056
 20
2.96048
  0
VERTEX
  8
0
 10
-7.45694
 20
2.96876
  0
VERTEX
  8
0
 10
-7.44389
 20
2.97686
  0
VERTEX
  8
0
 10
-7.43138
 20
2.98476
  0
VERTEX
  8
0
 10
-7.41945
 20
2.9925
  0
VERTEX
  8
0
 10
-7.40807
 20
3.00005
  0
VERTEX
  8
0
 10
-7.39725
 20
3.00743
  0
VERTEX
  8
0
 10
-7.38696
 20
3.0146
  0
VERTEX
  8
0
 10
-7.37724
 20
3.0216
  0
VERTEX
  8
0
 10
-7.36808
 20
3.02841
  0
VERTEX
  8
0
 10
-7.35948
 20
3.03506
  0
VERTEX
  8
0
 10
-7.35142
 20
3.04149
  0
VERTEX
  8
0
 10
-7.34392
 20
3.04776
  0
VERTEX
  8
0
 10
-7.33698
 20
3.05384
  0
VERTEX
  8
0
 10
-7.33059
 20
3.05975
  0
VERTEX
  8
0
 10
-7.32331
 20
3.06675
  0
VERTEX
  8
0
 10
-7.31625
 20
3.07388
  0
VERTEX
  8
0
 10
-7.3094
 20
3.08111
  0
VERTEX
  8
0
 10
-7.30278
 20
3.08848
  0
VERTEX
  8
0
 10
-7.29636
 20
3.09594
  0
VERTEX
  8
0
 10
-7.29017
 20
3.10353
  0
VERTEX
  8
0
 10
-7.28418
 20
3.11123
  0
VERTEX
  8
0
 10
-7.27842
 20
3.11906
  0
VERTEX
  8
0
 10
-7.27285
 20
3.12698
  0
VERTEX
  8
0
 10
-7.2675
 20
3.13503
  0
VERTEX
  8
0
 10
-7.26236
 20
3.14319
  0
VERTEX
  8
0
 10
-7.25745
 20
3.1515
  0
VERTEX
  8
0
 10
-7.25273
 20
3.1599
  0
VERTEX
  8
0
 10
-7.24823
 20
3.16845
  0
VERTEX
  8
0
 10
-7.24393
 20
3.17709
  0
VERTEX
  8
0
 10
-7.23986
 20
3.18588
  0
VERTEX
  8
0
 10
-7.23599
 20
3.19477
  0
VERTEX
  8
0
 10
-7.23238
 20
3.2037
  0
VERTEX
  8
0
 10
-7.22902
 20
3.21266
  0
VERTEX
  8
0
 10
-7.22592
 20
3.22166
  0
VERTEX
  8
0
 10
-7.22306
 20
3.23067
  0
VERTEX
  8
0
 10
-7.22045
 20
3.23972
  0
VERTEX
  8
0
 10
-7.2181
 20
3.24879
  0
VERTEX
  8
0
 10
-7.216
 20
3.2579
  0
VERTEX
  8
0
 10
-7.21414
 20
3.26701
  0
VERTEX
  8
0
 10
-7.21253
 20
3.27617
  0
VERTEX
  8
0
 10
-7.21117
 20
3.28534
  0
VERTEX
  8
0
 10
-7.21006
 20
3.29456
  0
VERTEX
  8
0
 10
-7.20919
 20
3.30378
  0
VERTEX
  8
0
 10
-7.20857
 20
3.31304
  0
VERTEX
  8
0
 10
-7.20821
 20
3.32233
  0
VERTEX
  8
0
 10
-7.20809
 20
3.33165
  0
VERTEX
  8
0
 10
-7.20825
 20
3.34239
  0
VERTEX
  8
0
 10
-7.20876
 20
3.3529
  0
VERTEX
  8
0
 10
-7.20959
 20
3.36316
  0
VERTEX
  8
0
 10
-7.21078
 20
3.37321
  0
VERTEX
  8
0
 10
-7.21229
 20
3.38299
  0
VERTEX
  8
0
 10
-7.21414
 20
3.39256
  0
VERTEX
  8
0
 10
-7.21632
 20
3.40189
  0
VERTEX
  8
0
 10
-7.21885
 20
3.41098
  0
VERTEX
  8
0
 10
-7.22169
 20
3.41983
  0
VERTEX
  8
0
 10
-7.22488
 20
3.42844
  0
VERTEX
  8
0
 10
-7.2284
 20
3.43682
  0
VERTEX
  8
0
 10
-7.23226
 20
3.44498
  0
VERTEX
  8
0
 10
-7.23644
 20
3.45289
  0
VERTEX
  8
0
 10
-7.24096
 20
3.46057
  0
VERTEX
  8
0
 10
-7.2458
 20
3.46802
  0
VERTEX
  8
0
 10
-7.251
 20
3.47525
  0
VERTEX
  8
0
 10
-7.25642
 20
3.48212
  0
VERTEX
  8
0
 10
-7.26202
 20
3.48856
  0
VERTEX
  8
0
 10
-7.26778
 20
3.49455
  0
VERTEX
  8
0
 10
-7.27371
 20
3.50011
  0
VERTEX
  8
0
 10
-7.27978
 20
3.50521
  0
VERTEX
  8
0
 10
-7.28604
 20
3.50988
  0
VERTEX
  8
0
 10
-7.29245
 20
3.5141
  0
VERTEX
  8
0
 10
-7.29904
 20
3.51789
  0
VERTEX
  8
0
 10
-7.30577
 20
3.52121
  0
VERTEX
  8
0
 10
-7.31267
 20
3.52411
  0
VERTEX
  8
0
 10
-7.31973
 20
3.52655
  0
VERTEX
  8
0
 10
-7.32697
 20
3.52856
  0
VERTEX
  8
0
 10
-7.33435
 20
3.53011
  0
VERTEX
  8
0
 10
-7.34191
 20
3.53123
  0
VERTEX
  8
0
 10
-7.34963
 20
3.5319
  0
VERTEX
  8
0
 10
-7.35753
 20
3.53213
  0
VERTEX
  8
0
 10
-7.36447
 20
3.53193
  0
VERTEX
  8
0
 10
-7.37127
 20
3.53135
  0
VERTEX
  8
0
 10
-7.37791
 20
3.53037
  0
VERTEX
  8
0
 10
-7.38443
 20
3.52901
  0
VERTEX
  8
0
 10
-7.39077
 20
3.52725
  0
VERTEX
  8
0
 10
-7.39697
 20
3.52511
  0
VERTEX
  8
0
 10
-7.40302
 20
3.52257
  0
VERTEX
  8
0
 10
-7.40894
 20
3.51965
  0
VERTEX
  8
0
 10
-7.41468
 20
3.51633
  0
VERTEX
  8
0
 10
-7.42028
 20
3.51263
  0
VERTEX
  8
0
 10
-7.42573
 20
3.50853
  0
VERTEX
  8
0
 10
-7.43105
 20
3.50405
  0
VERTEX
  8
0
 10
-7.43619
 20
3.49917
  0
VERTEX
  8
0
 10
-7.4412
 20
3.4939
  0
VERTEX
  8
0
 10
-7.44605
 20
3.48824
  0
VERTEX
  8
0
 10
-7.45077
 20
3.4822
  0
VERTEX
  8
0
 10
-7.45527
 20
3.47578
  0
VERTEX
  8
0
 10
-7.45949
 20
3.46918
  0
VERTEX
  8
0
 10
-7.46342
 20
3.46237
  0
VERTEX
  8
0
 10
-7.46706
 20
3.45538
  0
VERTEX
  8
0
 10
-7.47039
 20
3.44818
  0
VERTEX
  8
0
 10
-7.47345
 20
3.44079
  0
VERTEX
  8
0
 10
-7.47621
 20
3.4332
  0
VERTEX
  8
0
 10
-7.47869
 20
3.42543
  0
VERTEX
  8
0
 10
-7.48086
 20
3.41743
  0
VERTEX
  8
0
 10
-7.48275
 20
3.40926
  0
VERTEX
  8
0
 10
-7.48434
 20
3.40089
  0
VERTEX
  8
0
 10
-7.48565
 20
3.39233
  0
VERTEX
  8
0
 10
-7.48666
 20
3.38355
  0
VERTEX
  8
0
 10
-7.48739
 20
3.37458
  0
VERTEX
  8
0
 10
-7.48783
 20
3.36541
  0
VERTEX
  8
0
 10
-7.48798
 20
3.35607
  0
VERTEX
  8
0
 10
-7.48787
 20
3.3498
  0
VERTEX
  8
0
 10
-7.48759
 20
3.34368
  0
VERTEX
  8
0
 10
-7.48709
 20
3.33768
  0
VERTEX
  8
0
 10
-7.48643
 20
3.3318
  0
VERTEX
  8
0
 10
-7.48556
 20
3.32604
  0
VERTEX
  8
0
 10
-7.48451
 20
3.3204
  0
VERTEX
  8
0
 10
-7.48325
 20
3.31488
  0
VERTEX
  8
0
 10
-7.48182
 20
3.30949
  0
VERTEX
  8
0
 10
-7.48017
 20
3.30421
  0
VERTEX
  8
0
 10
-7.47835
 20
3.29905
  0
VERTEX
  8
0
 10
-7.47632
 20
3.29401
  0
VERTEX
  8
0
 10
-7.47412
 20
3.2891
  0
VERTEX
  8
0
 10
-7.47171
 20
3.2843
  0
VERTEX
  8
0
 10
-7.46913
 20
3.27962
  0
VERTEX
  8
0
 10
-7.46634
 20
3.27506
  0
VERTEX
  8
0
 10
-7.46337
 20
3.27065
  0
VERTEX
  8
0
 10
-7.46018
 20
3.26641
  0
VERTEX
  8
0
 10
-7.45694
 20
3.26246
  0
VERTEX
  8
0
 10
-7.45362
 20
3.25877
  0
VERTEX
  8
0
 10
-7.45026
 20
3.25536
  0
VERTEX
  8
0
 10
-7.44681
 20
3.2522
  0
VERTEX
  8
0
 10
-7.44331
 20
3.24933
  0
VERTEX
  8
0
 10
-7.43972
 20
3.24672
  0
VERTEX
  8
0
 10
-7.43609
 20
3.2444
  0
VERTEX
  8
0
 10
-7.43236
 20
3.24232
  0
VERTEX
  8
0
 10
-7.42858
 20
3.24054
  0
VERTEX
  8
0
 10
-7.42471
 20
3.23902
  0
VERTEX
  8
0
 10
-7.4208
 20
3.23779
  0
VERTEX
  8
0
 10
-7.41679
 20
3.23681
  0
VERTEX
  8
0
 10
-7.41274
 20
3.23613
  0
VERTEX
  8
0
 10
-7.4086
 20
3.23572
  0
VERTEX
  8
0
 10
-7.40441
 20
3.23559
  0
VERTEX
  8
0
 10
-7.40257
 20
3.2356
  0
VERTEX
  8
0
 10
-7.40076
 20
3.23569
  0
VERTEX
  8
0
 10
-7.39898
 20
3.23582
  0
VERTEX
  8
0
 10
-7.39723
 20
3.23603
  0
VERTEX
  8
0
 10
-7.39549
 20
3.23627
  0
VERTEX
  8
0
 10
-7.39379
 20
3.23658
  0
VERTEX
  8
0
 10
-7.3921
 20
3.23694
  0
VERTEX
  8
0
 10
-7.39046
 20
3.23739
  0
VERTEX
  8
0
 10
-7.38882
 20
3.23786
  0
VERTEX
  8
0
 10
-7.38721
 20
3.2384
  0
VERTEX
  8
0
 10
-7.38563
 20
3.239
  0
VERTEX
  8
0
 10
-7.38408
 20
3.23966
  0
VERTEX
  8
0
 10
-7.38254
 20
3.24035
  0
VERTEX
  8
0
 10
-7.38103
 20
3.24113
  0
VERTEX
  8
0
 10
-7.37954
 20
3.24196
  0
VERTEX
  8
0
 10
-7.37808
 20
3.24286
  0
VERTEX
  8
0
 10
-7.37667
 20
3.24379
  0
VERTEX
  8
0
 10
-7.37528
 20
3.24478
  0
VERTEX
  8
0
 10
-7.3739
 20
3.2458
  0
VERTEX
  8
0
 10
-7.37255
 20
3.2469
  0
VERTEX
  8
0
 10
-7.3712
 20
3.24802
  0
VERTEX
  8
0
 10
-7.36988
 20
3.24922
  0
VERTEX
  8
0
 10
-7.36856
 20
3.25045
  0
VERTEX
  8
0
 10
-7.36728
 20
3.25177
  0
VERTEX
  8
0
 10
-7.36599
 20
3.25312
  0
VERTEX
  8
0
 10
-7.36473
 20
3.25453
  0
VERTEX
  8
0
 10
-7.36348
 20
3.256
  0
VERTEX
  8
0
 10
-7.36226
 20
3.25755
  0
VERTEX
  8
0
 10
-7.36105
 20
3.25914
  0
VERTEX
  8
0
 10
-7.35986
 20
3.26082
  0
VERTEX
  8
0
 10
-7.35868
 20
3.26255
  0
VERTEX
  8
0
 10
-7.35339
 20
3.26435
  0
VERTEX
  8
0
 10
-7.35339
 20
3.26435
  0
VERTEX
  8
0
 10
-7.354
 20
3.25736
  0
VERTEX
  8
0
 10
-7.35482
 20
3.25056
  0
VERTEX
  8
0
 10
-7.35584
 20
3.24391
  0
VERTEX
  8
0
 10
-7.35708
 20
3.23746
  0
VERTEX
  8
0
 10
-7.35851
 20
3.23116
  0
VERTEX
  8
0
 10
-7.36015
 20
3.22504
  0
VERTEX
  8
0
 10
-7.36199
 20
3.21908
  0
VERTEX
  8
0
 10
-7.36405
 20
3.21332
  0
VERTEX
  8
0
 10
-7.36629
 20
3.2077
  0
VERTEX
  8
0
 10
-7.36876
 20
3.20227
  0
VERTEX
  8
0
 10
-7.37142
 20
3.19699
  0
VERTEX
  8
0
 10
-7.37431
 20
3.19192
  0
VERTEX
  8
0
 10
-7.37739
 20
3.18699
  0
VERTEX
  8
0
 10
-7.38069
 20
3.18225
  0
VERTEX
  8
0
 10
-7.38419
 20
3.17767
  0
VERTEX
  8
0
 10
-7.38792
 20
3.17329
  0
VERTEX
  8
0
 10
-7.39178
 20
3.1691
  0
VERTEX
  8
0
 10
-7.39577
 20
3.16519
  0
VERTEX
  8
0
 10
-7.39985
 20
3.16154
  0
VERTEX
  8
0
 10
-7.40407
 20
3.15817
  0
VERTEX
  8
0
 10
-7.40838
 20
3.15506
  0
VERTEX
  8
0
 10
-7.41282
 20
3.15223
  0
VERTEX
  8
0
 10
-7.41736
 20
3.14967
  0
VERTEX
  8
0
 10
-7.42204
 20
3.14739
  0
VERTEX
  8
0
 10
-7.4268
 20
3.14536
  0
VERTEX
  8
0
 10
-7.43169
 20
3.14361
  0
VERTEX
  8
0
 10
-7.43667
 20
3.14212
  0
VERTEX
  8
0
 10
-7.4418
 20
3.14091
  0
VERTEX
  8
0
 10
-7.44701
 20
3.13996
  0
VERTEX
  8
0
 10
-7.45235
 20
3.13929
  0
VERTEX
  8
0
 10
-7.45779
 20
3.13889
  0
VERTEX
  8
0
 10
-7.46337
 20
3.13877
  0
VERTEX
  8
0
 10
-7.46945
 20
3.13892
  0
VERTEX
  8
0
 10
-7.47541
 20
3.1394
  0
VERTEX
  8
0
 10
-7.48123
 20
3.14018
  0
VERTEX
  8
0
 10
-7.48692
 20
3.1413
  0
VERTEX
  8
0
 10
-7.49245
 20
3.14273
  0
VERTEX
  8
0
 10
-7.49785
 20
3.14448
  0
VERTEX
  8
0
 10
-7.50311
 20
3.14655
  0
VERTEX
  8
0
 10
-7.50825
 20
3.14895
  0
VERTEX
  8
0
 10
-7.51322
 20
3.15165
  0
VERTEX
  8
0
 10
-7.51807
 20
3.15468
  0
VERTEX
  8
0
 10
-7.52278
 20
3.15803
  0
VERTEX
  8
0
 10
-7.52736
 20
3.1617
  0
VERTEX
  8
0
 10
-7.53178
 20
3.16568
  0
VERTEX
  8
0
 10
-7.53608
 20
3.17
  0
VERTEX
  8
0
 10
-7.54023
 20
3.17462
  0
VERTEX
  8
0
 10
-7.54427
 20
3.17958
  0
VERTEX
  8
0
 10
-7.54806
 20
3.18478
  0
VERTEX
  8
0
 10
-7.55163
 20
3.19018
  0
VERTEX
  8
0
 10
-7.55494
 20
3.19573
  0
VERTEX
  8
0
 10
-7.55803
 20
3.20147
  0
VERTEX
  8
0
 10
-7.56085
 20
3.20736
  0
VERTEX
  8
0
 10
-7.56344
 20
3.21345
  0
VERTEX
  8
0
 10
-7.56578
 20
3.21969
  0
VERTEX
  8
0
 10
-7.56788
 20
3.22612
  0
VERTEX
  8
0
 10
-7.56971
 20
3.23269
  0
VERTEX
  8
0
 10
-7.57132
 20
3.23946
  0
VERTEX
  8
0
 10
-7.57267
 20
3.24637
  0
VERTEX
  8
0
 10
-7.5738
 20
3.25348
  0
VERTEX
  8
0
 10
-7.57465
 20
3.26074
  0
VERTEX
  8
0
 10
-7.57528
 20
3.26818
  0
VERTEX
  8
0
 10
-7.57564
 20
3.27578
  0
VERTEX
  8
0
 10
-7.57578
 20
3.28357
  0
VERTEX
  8
0
 10
-7.57543
 20
3.29705
  0
VERTEX
  8
0
 10
-7.57443
 20
3.31037
  0
VERTEX
  8
0
 10
-7.57275
 20
3.3235
  0
VERTEX
  8
0
 10
-7.57041
 20
3.33646
  0
VERTEX
  8
0
 10
-7.56738
 20
3.34921
  0
VERTEX
  8
0
 10
-7.56371
 20
3.36181
  0
VERTEX
  8
0
 10
-7.55935
 20
3.3742
  0
VERTEX
  8
0
 10
-7.55434
 20
3.38644
  0
VERTEX
  8
0
 10
-7.54863
 20
3.39847
  0
VERTEX
  8
0
 10
-7.54227
 20
3.41035
  0
VERTEX
  8
0
 10
-7.53523
 20
3.42203
  0
VERTEX
  8
0
 10
-7.52754
 20
3.43355
  0
VERTEX
  8
0
 10
-7.51916
 20
3.44488
  0
VERTEX
  8
0
 10
-7.51013
 20
3.45604
  0
VERTEX
  8
0
 10
-7.50041
 20
3.46703
  0
VERTEX
  8
0
 10
-7.49005
 20
3.47786
  0
VERTEX
  8
0
 10
-7.47919
 20
3.48818
  0
VERTEX
  8
0
 10
-7.46812
 20
3.49784
  0
VERTEX
  8
0
 10
-7.45681
 20
3.50683
  0
VERTEX
  8
0
 10
-7.44526
 20
3.51517
  0
VERTEX
  8
0
 10
-7.43347
 20
3.52282
  0
VERTEX
  8
0
 10
-7.42144
 20
3.52983
  0
VERTEX
  8
0
 10
-7.40917
 20
3.53616
  0
VERTEX
  8
0
 10
-7.39666
 20
3.54184
  0
VERTEX
  8
0
 10
-7.38388
 20
3.54682
  0
VERTEX
  8
0
 10
-7.37089
 20
3.55116
  0
VERTEX
  8
0
 10
-7.35766
 20
3.55482
  0
VERTEX
  8
0
 10
-7.34419
 20
3.55783
  0
VERTEX
  8
0
 10
-7.33045
 20
3.56015
  0
VERTEX
  8
0
 10
-7.3165
 20
3.56183
  0
VERTEX
  8
0
 10
-7.30229
 20
3.56282
  0
VERTEX
  8
0
 10
-7.28786
 20
3.56317
  0
VERTEX
  8
0
 10
-7.27691
 20
3.56291
  0
VERTEX
  8
0
 10
-7.2662
 20
3.56216
  0
VERTEX
  8
0
 10
-7.25573
 20
3.56091
  0
VERTEX
  8
0
 10
-7.2455
 20
3.55918
  0
VERTEX
  8
0
 10
-7.23549
 20
3.55693
  0
VERTEX
  8
0
 10
-7.22574
 20
3.5542
  0
VERTEX
  8
0
 10
-7.21622
 20
3.55097
  0
VERTEX
  8
0
 10
-7.20695
 20
3.54725
  0
VERTEX
  8
0
 10
-7.19789
 20
3.54302
  0
VERTEX
  8
0
 10
-7.1891
 20
3.53831
  0
VERTEX
  8
0
 10
-7.18052
 20
3.53309
  0
VERTEX
  8
0
 10
-7.17221
 20
3.52739
  0
VERTEX
  8
0
 10
-7.16412
 20
3.52118
  0
VERTEX
  8
0
 10
-7.15629
 20
3.51451
  0
VERTEX
  8
0
 10
-7.1487
 20
3.50732
  0
VERTEX
  8
0
 10
-7.14135
 20
3.49967
  0
VERTEX
  8
0
 10
-7.13433
 20
3.49155
  0
VERTEX
  8
0
 10
-7.12778
 20
3.48318
  0
VERTEX
  8
0
 10
-7.12167
 20
3.47454
  0
VERTEX
  8
0
 10
-7.11602
 20
3.46565
  0
VERTEX
  8
0
 10
-7.11081
 20
3.45648
  0
VERTEX
  8
0
 10
-7.10608
 20
3.44707
  0
VERTEX
  8
0
 10
-7.10178
 20
3.43739
  0
VERTEX
  8
0
 10
-7.09795
 20
3.42746
  0
VERTEX
  8
0
 10
-7.09455
 20
3.41724
  0
VERTEX
  8
0
 10
-7.09162
 20
3.40678
  0
VERTEX
  8
0
 10
-7.08913
 20
3.39605
  0
VERTEX
  8
0
 10
-7.08711
 20
3.38507
  0
VERTEX
  8
0
 10
-7.08553
 20
3.3738
  0
VERTEX
  8
0
 10
-7.08441
 20
3.36229
  0
VERTEX
  8
0
 10
-7.08373
 20
3.35051
  0
VERTEX
  8
0
 10
-7.08351
 20
3.33849
  0
VERTEX
  8
0
 10
-7.08379
 20
3.32393
  0
VERTEX
  8
0
 10
-7.08468
 20
3.30958
  0
VERTEX
  8
0
 10
-7.08615
 20
3.29544
  0
VERTEX
  8
0
 10
-7.08822
 20
3.28153
  0
VERTEX
  8
0
 10
-7.09086
 20
3.2678
  0
VERTEX
  8
0
 10
-7.0941
 20
3.25429
  0
VERTEX
  8
0
 10
-7.09792
 20
3.24099
  0
VERTEX
  8
0
 10
-7.10236
 20
3.2279
  0
VERTEX
  8
0
 10
-7.10735
 20
3.21499
  0
VERTEX
  8
0
 10
-7.11296
 20
3.20231
  0
VERTEX
  8
0
 10
-7.11914
 20
3.18982
  0
VERTEX
  8
0
 10
-7.12593
 20
3.17756
  0
VERTEX
  8
0
 10
-7.13329
 20
3.16549
  0
VERTEX
  8
0
 10
-7.14126
 20
3.15363
  0
VERTEX
  8
0
 10
-7.14981
 20
3.14197
  0
VERTEX
  8
0
 10
-7.15897
 20
3.13052
  0
VERTEX
  8
0
 10
-7.16864
 20
3.11921
  0
VERTEX
  8
0
 10
-7.17898
 20
3.10808
  0
VERTEX
  8
0
 10
-7.18996
 20
3.09711
  0
VERTEX
  8
0
 10
-7.2016
 20
3.08631
  0
VERTEX
  8
0
 10
-7.21385
 20
3.07566
  0
VERTEX
  8
0
 10
-7.22677
 20
3.06519
  0
VERTEX
  8
0
 10
-7.24031
 20
3.05488
  0
VERTEX
  8
0
 10
-7.25451
 20
3.04474
  0
VERTEX
  8
0
 10
-7.26932
 20
3.03475
  0
VERTEX
  8
0
 10
-7.28479
 20
3.02494
  0
VERTEX
  8
0
 10
-7.30088
 20
3.01528
  0
VERTEX
  8
0
 10
-7.31761
 20
3.0058
  0
VERTEX
  8
0
 10
-7.33496
 20
2.99647
  0
VERTEX
  8
0
 10
-7.35297
 20
2.98734
  0
VERTEX
  8
0
 10
-7.37159
 20
2.97835
  0
VERTEX
  8
0
 10
-7.39086
 20
2.96955
  0
VERTEX
  8
0
 10
-7.40651
 20
2.96245
  0
VERTEX
  8
0
 10
-7.42173
 20
2.95553
  0
VERTEX
  8
0
 10
-7.43648
 20
2.94874
  0
VERTEX
  8
0
 10
-7.4508
 20
2.94212
  0
VERTEX
  8
0
 10
-7.46465
 20
2.93563
  0
VERTEX
  8
0
 10
-7.47805
 20
2.92931
  0
VERTEX
  8
0
 10
-7.491
 20
2.92314
  0
VERTEX
  8
0
 10
-7.50351
 20
2.91712
  0
VERTEX
  8
0
 10
-7.51554
 20
2.91123
  0
VERTEX
  8
0
 10
-7.52713
 20
2.9055
  0
VERTEX
  8
0
 10
-7.53827
 20
2.89991
  0
VERTEX
  8
0
 10
-7.54896
 20
2.89448
  0
VERTEX
  8
0
 10
-7.55918
 20
2.88917
  0
VERTEX
  8
0
 10
-7.56897
 20
2.88402
  0
VERTEX
  8
0
 10
-7.57829
 20
2.879
  0
VERTEX
  8
0
 10
-7.58718
 20
2.87414
  0
VERTEX
  8
0
 10
-7.59567
 20
2.86936
  0
VERTEX
  8
0
 10
-7.60392
 20
2.86464
  0
VERTEX
  8
0
 10
-7.61194
 20
2.85994
  0
VERTEX
  8
0
 10
-7.61974
 20
2.85531
  0
VERTEX
  8
0
 10
-7.62729
 20
2.8507
  0
VERTEX
  8
0
 10
-7.63461
 20
2.84614
  0
VERTEX
  8
0
 10
-7.64169
 20
2.84162
  0
VERTEX
  8
0
 10
-7.64854
 20
2.83715
  0
VERTEX
  8
0
 10
-7.65514
 20
2.8327
  0
VERTEX
  8
0
 10
-7.66152
 20
2.82831
  0
VERTEX
  8
0
 10
-7.66765
 20
2.82396
  0
VERTEX
  8
0
 10
-7.67356
 20
2.81967
  0
VERTEX
  8
0
 10
-7.67923
 20
2.81541
  0
VERTEX
  8
0
 10
-7.68466
 20
2.81121
  0
VERTEX
  8
0
 10
-7.68985
 20
2.80704
  0
VERTEX
  8
0
 10
-7.69233
 20
2.7986
  0
VERTEX
  8
0
 10
-7.69233
 20
2.7986
  0
VERTEX
  8
0
 10
-7.68821
 20
2.80038
  0
VERTEX
  8
0
 10
-7.68411
 20
2.80212
  0
VERTEX
  8
0
 10
-7.68002
 20
2.80377
  0
VERTEX
  8
0
 10
-7.67595
 20
2.80539
  0
VERTEX
  8
0
 10
-7.67187
 20
2.80692
  0
VERTEX
  8
0
 10
-7.66782
 20
2.8084
  0
VERTEX
  8
0
 10
-7.66377
 20
2.80981
  0
VERTEX
  8
0
 10
-7.65975
 20
2.81118
  0
VERTEX
  8
0
 10
-7.65572
 20
2.81247
  0
VERTEX
  8
0
 10
-7.6517
 20
2.8137
  0
VERTEX
  8
0
 10
-7.6477
 20
2.81487
  0
VERTEX
  8
0
 10
-7.64371
 20
2.81599
  0
VERTEX
  8
0
 10
-7.63972
 20
2.81704
  0
VERTEX
  8
0
 10
-7.63574
 20
2.81804
  0
VERTEX
  8
0
 10
-7.63178
 20
2.81897
  0
VERTEX
  8
0
 10
-7.62784
 20
2.81987
  0
VERTEX
  8
0
 10
-7.6239
 20
2.82065
  0
VERTEX
  8
0
 10
-7.61998
 20
2.82138
  0
VERTEX
  8
0
 10
-7.61608
 20
2.82207
  0
VERTEX
  8
0
 10
-7.6122
 20
2.82272
  0
VERTEX
  8
0
 10
-7.60832
 20
2.82331
  0
VERTEX
  8
0
 10
-7.60446
 20
2.82385
  0
VERTEX
  8
0
 10
-7.60061
 20
2.82435
  0
VERTEX
  8
0
 10
-7.59678
 20
2.8248
  0
VERTEX
  8
0
 10
-7.59294
 20
2.82519
  0
VERTEX
  8
0
 10
-7.58911
 20
2.82553
  0
VERTEX
  8
0
 10
-7.5853
 20
2.82582
  0
VERTEX
  8
0
 10
-7.5815
 20
2.82606
  0
VERTEX
  8
0
 10
-7.5777
 20
2.82624
  0
VERTEX
  8
0
 10
-7.57392
 20
2.82637
  0
VERTEX
  8
0
 10
-7.57014
 20
2.82646
  0
VERTEX
  8
0
 10
-7.56637
 20
2.82649
  0
VERTEX
  8
0
 10
-7.56038
 20
2.82637
  0
VERTEX
  8
0
 10
-7.55417
 20
2.82604
  0
VERTEX
  8
0
 10
-7.54772
 20
2.82549
  0
VERTEX
  8
0
 10
-7.54106
 20
2.82472
  0
VERTEX
  8
0
 10
-7.53416
 20
2.82372
  0
VERTEX
  8
0
 10
-7.52703
 20
2.82251
  0
VERTEX
  8
0
 10
-7.51967
 20
2.82107
  0
VERTEX
  8
0
 10
-7.51209
 20
2.81943
  0
VERTEX
  8
0
 10
-7.50426
 20
2.81755
  0
VERTEX
  8
0
 10
-7.49622
 20
2.81546
  0
VERTEX
  8
0
 10
-7.48796
 20
2.81315
  0
VERTEX
  8
0
 10
-7.47947
 20
2.81064
  0
VERTEX
  8
0
 10
-7.47074
 20
2.80789
  0
VERTEX
  8
0
 10
-7.4618
 20
2.80493
  0
VERTEX
  8
0
 10
-7.45264
 20
2.80176
  0
VERTEX
  8
0
 10
-7.44326
 20
2.79838
  0
VERTEX
  8
0
 10
-7.43385
 20
2.79497
  0
VERTEX
  8
0
 10
-7.42479
 20
2.7918
  0
VERTEX
  8
0
 10
-7.41607
 20
2.78882
  0
VERTEX
  8
0
 10
-7.4077
 20
2.78608
  0
VERTEX
  8
0
 10
-7.39964
 20
2.78354
  0
VERTEX
  8
0
 10
-7.39194
 20
2.78123
  0
VERTEX
  8
0
 10
-7.38457
 20
2.77913
  0
VERTEX
  8
0
 10
-7.37754
 20
2.77726
  0
VERTEX
  8
0
 10
-7.37083
 20
2.77559
  0
VERTEX
  8
0
 10
-7.36447
 20
2.77415
  0
VERTEX
  8
0
 10
-7.35843
 20
2.77292
  0
VERTEX
  8
0
 10
-7.35274
 20
2.77193
  0
VERTEX
  8
0
 10
-7.34736
 20
2.77114
  0
VERTEX
  8
0
 10
-7.34233
 20
2.77059
  0
VERTEX
  8
0
 10
-7.33763
 20
2.77026
  0
VERTEX
  8
0
 10
-7.33327
 20
2.77016
  0
VERTEX
  8
0
 10
-7.32635
 20
2.77037
  0
VERTEX
  8
0
 10
-7.3195
 20
2.771
  0
VERTEX
  8
0
 10
-7.31269
 20
2.77205
  0
VERTEX
  8
0
 10
-7.30595
 20
2.77355
  0
VERTEX
  8
0
 10
-7.29924
 20
2.77546
  0
VERTEX
  8
0
 10
-7.2926
 20
2.7778
  0
VERTEX
  8
0
 10
-7.286
 20
2.78056
  0
VERTEX
  8
0
 10
-7.27948
 20
2.78375
  0
VERTEX
  8
0
 10
-7.27297
 20
2.78735
  0
VERTEX
  8
0
 10
-7.26654
 20
2.79139
  0
VERTEX
  8
0
 10
-7.26015
 20
2.79585
  0
VERTEX
  8
0
 10
-7.25384
 20
2.80074
  0
VERTEX
  8
0
 10
-7.24755
 20
2.80605
  0
VERTEX
  8
0
 10
-7.24134
 20
2.81178
  0
VERTEX
  8
0
 10
-7.23516
 20
2.81794
  0
VERTEX
  8
0
 10
-7.22907
 20
2.82454
  0
VERTEX
  8
0
 10
-7.22304
 20
2.83152
  0
VERTEX
  8
0
 10
-7.21707
 20
2.83896
  0
VERTEX
  8
0
 10
-7.21114
 20
2.84683
  0
VERTEX
  8
0
 10
-7.20526
 20
2.85515
  0
VERTEX
  8
0
 10
-7.19941
 20
2.8639
  0
VERTEX
  8
0
 10
-7.19362
 20
2.87309
  0
VERTEX
  8
0
 10
-7.18786
 20
2.88271
  0
VERTEX
  8
0
 10
-7.18217
 20
2.89278
  0
VERTEX
  8
0
 10
-7.1765
 20
2.90327
  0
VERTEX
  8
0
 10
-7.1709
 20
2.9142
  0
VERTEX
  8
0
 10
-7.16533
 20
2.92556
  0
VERTEX
  8
0
 10
-7.15984
 20
2.93736
  0
VERTEX
  8
0
 10
-7.15437
 20
2.94958
  0
VERTEX
  8
0
 10
-7.14897
 20
2.96224
  0
VERTEX
  8
0
 10
-7.14361
 20
2.97534
  0
VERTEX
  8
0
 10
-7.12832
 20
2.98399
  0
VERTEX
  8
0
 10
-7.12832
 20
2.98399
  0
VERTEX
  8
0
 10
-7.13575
 20
2.96512
  0
VERTEX
  8
0
 10
-7.14333
 20
2.94679
  0
VERTEX
  8
0
 10
-7.15106
 20
2.929
  0
VERTEX
  8
0
 10
-7.15894
 20
2.91177
  0
VERTEX
  8
0
 10
-7.16695
 20
2.89506
  0
VERTEX
  8
0
 10
-7.17512
 20
2.87889
  0
VERTEX
  8
0
 10
-7.18344
 20
2.86326
  0
VERTEX
  8
0
 10
-7.19192
 20
2.8482
  0
VERTEX
  8
0
 10
-7.20052
 20
2.83365
  0
VERTEX
  8
0
 10
-7.20928
 20
2.81964
  0
VERTEX
  8
0
 10
-7.21818
 20
2.80617
  0
VERTEX
  8
0
 10
-7.22725
 20
2.79324
  0
VERTEX
  8
0
 10
-7.23645
 20
2.78085
  0
VERTEX
  8
0
 10
-7.24581
 20
2.769
  0
VERTEX
  8
0
 10
-7.25531
 20
2.75769
  0
VERTEX
  8
0
 10
-7.26498
 20
2.74693
  0
VERTEX
  8
0
 10
-7.27471
 20
2.73679
  0
VERTEX
  8
0
 10
-7.28447
 20
2.72731
  0
VERTEX
  8
0
 10
-7.29424
 20
2.71849
  0
VERTEX
  8
0
 10
-7.30405
 20
2.71033
  0
VERTEX
  8
0
 10
-7.31387
 20
2.7028
  0
VERTEX
  8
0
 10
-7.32372
 20
2.69596
  0
VERTEX
  8
0
 10
-7.33359
 20
2.68975
  0
VERTEX
  8
0
 10
-7.3435
 20
2.68422
  0
VERTEX
  8
0
 10
-7.35341
 20
2.67931
  0
VERTEX
  8
0
 10
-7.36335
 20
2.67508
  0
VERTEX
  8
0
 10
-7.37332
 20
2.67148
  0
VERTEX
  8
0
 10
-7.38332
 20
2.66856
  0
VERTEX
  8
0
 10
-7.39333
 20
2.66627
  0
VERTEX
  8
0
 10
-7.40339
 20
2.66465
  0
VERTEX
  8
0
 10
-7.41346
 20
2.66367
  0
VERTEX
  8
0
 10
-7.42358
 20
2.66336
  0
VERTEX
  8
0
 10
-7.43045
 20
2.66355
  0
VERTEX
  8
0
 10
-7.43765
 20
2.66414
  0
VERTEX
  8
0
 10
-7.44517
 20
2.66512
  0
VERTEX
  8
0
 10
-7.45301
 20
2.66652
  0
VERTEX
  8
0
 10
-7.46115
 20
2.66829
  0
VERTEX
  8
0
 10
-7.46962
 20
2.67047
  0
VERTEX
  8
0
 10
-7.4784
 20
2.67303
  0
VERTEX
  8
0
 10
-7.4875
 20
2.67601
  0
VERTEX
  8
0
 10
-7.4969
 20
2.67935
  0
VERTEX
  8
0
 10
-7.50663
 20
2.68311
  0
VERTEX
  8
0
 10
-7.51667
 20
2.68724
  0
VERTEX
  8
0
 10
-7.52703
 20
2.69178
  0
VERTEX
  8
0
 10
-7.5377
 20
2.69669
  0
VERTEX
  8
0
 10
-7.54869
 20
2.70201
  0
VERTEX
  8
0
 10
-7.56
 20
2.70772
  0
VERTEX
  8
0
 10
-7.57164
 20
2.71383
  0
VERTEX
  8
0
 10
-7.575
 20
2.71567
  0
VERTEX
  8
0
 10
-7.57827
 20
2.71746
  0
VERTEX
  8
0
 10
-7.58143
 20
2.71917
  0
VERTEX
  8
0
 10
-7.58449
 20
2.72084
  0
VERTEX
  8
0
 10
-7.58743
 20
2.72242
  0
VERTEX
  8
0
 10
-7.59026
 20
2.72395
  0
VERTEX
  8
0
 10
-7.59299
 20
2.72541
  0
VERTEX
  8
0
 10
-7.59562
 20
2.72682
  0
VERTEX
  8
0
 10
-7.59811
 20
2.72814
  0
VERTEX
  8
0
 10
-7.60051
 20
2.72941
  0
VERTEX
  8
0
 10
-7.60279
 20
2.73061
  0
VERTEX
  8
0
 10
-7.60497
 20
2.73177
  0
VERTEX
  8
0
 10
-7.60703
 20
2.73285
  0
VERTEX
  8
0
 10
-7.60898
 20
2.73387
  0
VERTEX
  8
0
 10
-7.61082
 20
2.73483
  0
VERTEX
  8
0
 10
-7.61256
 20
2.73575
  0
VERTEX
  8
0
 10
-7.61651
 20
2.7377
  0
VERTEX
  8
0
 10
-7.62043
 20
2.73961
  0
VERTEX
  8
0
 10
-7.6243
 20
2.74144
  0
VERTEX
  8
0
 10
-7.62814
 20
2.74324
  0
VERTEX
  8
0
 10
-7.63192
 20
2.74495
  0
VERTEX
  8
0
 10
-7.63567
 20
2.74663
  0
VERTEX
  8
0
 10
-7.63938
 20
2.74823
  0
VERTEX
  8
0
 10
-7.64305
 20
2.74979
  0
VERTEX
  8
0
 10
-7.64666
 20
2.75127
  0
VERTEX
  8
0
 10
-7.65024
 20
2.75271
  0
VERTEX
  8
0
 10
-7.65377
 20
2.75409
  0
VERTEX
  8
0
 10
-7.65727
 20
2.75542
  0
VERTEX
  8
0
 10
-7.66071
 20
2.75668
  0
VERTEX
  8
0
 10
-7.66413
 20
2.7579
  0
VERTEX
  8
0
 10
-7.66749
 20
2.75907
  0
VERTEX
  8
0
 10
-7.67083
 20
2.76018
  0
VERTEX
  8
0
 10
-7.67405
 20
2.76114
  0
VERTEX
  8
0
 10
-7.67723
 20
2.76207
  0
VERTEX
  8
0
 10
-7.68037
 20
2.76294
  0
VERTEX
  8
0
 10
-7.68347
 20
2.76375
  0
VERTEX
  8
0
 10
-7.6865
 20
2.76447
  0
VERTEX
  8
0
 10
-7.6895
 20
2.76516
  0
VERTEX
  8
0
 10
-7.69246
 20
2.76576
  0
VERTEX
  8
0
 10
-7.69538
 20
2.76633
  0
VERTEX
  8
0
 10
-7.69823
 20
2.76681
  0
VERTEX
  8
0
 10
-7.70105
 20
2.76723
  0
VERTEX
  8
0
 10
-7.70381
 20
2.76759
  0
VERTEX
  8
0
 10
-7.70655
 20
2.76789
  0
VERTEX
  8
0
 10
-7.70922
 20
2.7681
  0
VERTEX
  8
0
 10
-7.71186
 20
2.76828
  0
VERTEX
  8
0
 10
-7.71446
 20
2.76837
  0
VERTEX
  8
0
 10
-7.71702
 20
2.76842
  0
VERTEX
  8
0
 10
-7.71884
 20
2.76839
  0
VERTEX
  8
0
 10
-7.72063
 20
2.76834
  0
VERTEX
  8
0
 10
-7.72239
 20
2.76825
  0
VERTEX
  8
0
 10
-7.72412
 20
2.76814
  0
VERTEX
  8
0
 10
-7.72581
 20
2.76798
  0
VERTEX
  8
0
 10
-7.72749
 20
2.76779
  0
VERTEX
  8
0
 10
-7.72913
 20
2.76756
  0
VERTEX
  8
0
 10
-7.73076
 20
2.76731
  0
VERTEX
  8
0
 10
-7.73234
 20
2.767
  0
VERTEX
  8
0
 10
-7.73391
 20
2.76667
  0
VERTEX
  8
0
 10
-7.73544
 20
2.7663
  0
VERTEX
  8
0
 10
-7.73697
 20
2.76589
  0
VERTEX
  8
0
 10
-7.73845
 20
2.76543
  0
VERTEX
  8
0
 10
-7.73993
 20
2.76495
  0
VERTEX
  8
0
 10
-7.74138
 20
2.76443
  0
VERTEX
  8
0
 10
-7.74283
 20
2.76387
  0
VERTEX
  8
0
 10
-7.7442
 20
2.76325
  0
VERTEX
  8
0
 10
-7.74559
 20
2.7626
  0
VERTEX
  8
0
 10
-7.747
 20
2.7619
  0
VERTEX
  8
0
 10
-7.74844
 20
2.76117
  0
VERTEX
  8
0
 10
-7.74987
 20
2.76038
  0
VERTEX
  8
0
 10
-7.75132
 20
2.75957
  0
VERTEX
  8
0
 10
-7.75279
 20
2.75872
  0
VERTEX
  8
0
 10
-7.75428
 20
2.75783
  0
VERTEX
  8
0
 10
-7.75576
 20
2.75689
  0
VERTEX
  8
0
 10
-7.75726
 20
2.75591
  0
VERTEX
  8
0
 10
-7.75878
 20
2.75489
  0
VERTEX
  8
0
 10
-7.76032
 20
2.75384
  0
VERTEX
  8
0
 10
-7.76185
 20
2.75273
  0
VERTEX
  8
0
 10
-7.76341
 20
2.7516
  0
VERTEX
  8
0
 10
-7.76499
 20
2.75042
  0
SEQEND
  8
0
  0
POLYLINE
  8
0
 66
     1
  0
VERTEX
  8
0
 10
-7.52994
 20
6.86834
  0
VERTEX
  8
0
 10
-7.37066
 20
7.18583
  0
VERTEX
  8
0
 10
-7.73809
 20
7.17921
  0
VERTEX
  8
0
 10
-7.088
 20
7.88831
  0
VERTEX
  8
0
 10
-7.01298
 20
7.89005
  0
VERTEX
  8
0
 10
-7.69993
 20
7.19766
  0
VERTEX
  8
0
 10
-7.36125
 20
7.20428
  0
VERTEX
  8
0
 10
-7.36125
 20
7.20428
  0
VERTEX
  8
0
 10
-7.35466
 20
7.21756
  0
VERTEX
  8
0
 10
-7.34808
 20
7.23091
  0
VERTEX
  8
0
 10
-7.34148
 20
7.24434
  0
VERTEX
  8
0
 10
-7.33488
 20
7.25784
  0
VERTEX
  8
0
 10
-7.32823
 20
7.2714
  0
VERTEX
  8
0
 10
-7.32159
 20
7.28505
  0
VERTEX
  8
0
 10
-7.31492
 20
7.29876
  0
VERTEX
  8
0
 10
-7.30825
 20
7.31255
  0
VERTEX
  8
0
 10
-7.30154
 20
7.32639
  0
VERTEX
  8
0
 10
-7.29482
 20
7.34031
  0
VERTEX
  8
0
 10
-7.28808
 20
7.35429
  0
VERTEX
  8
0
 10
-7.28133
 20
7.36834
  0
VERTEX
  8
0
 10
-7.27454
 20
7.38244
  0
VERTEX
  8
0
 10
-7.26775
 20
7.39662
  0
VERTEX
  8
0
 10
-7.26093
 20
7.41085
  0
VERTEX
  8
0
 10
-7.25411
 20
7.42516
  0
VERTEX
  8
0
 10
-7.24712
 20
7.43978
  0
VERTEX
  8
0
 10
-7.23991
 20
7.4549
  0
VERTEX
  8
0
 10
-7.23247
 20
7.47052
  0
VERTEX
  8
0
 10
-7.22482
 20
7.48664
  0
VERTEX
  8
0
 10
-7.21693
 20
7.50323
  0
VERTEX
  8
0
 10
-7.20881
 20
7.52033
  0
VERTEX
  8
0
 10
-7.20047
 20
7.53792
  0
VERTEX
  8
0
 10
-7.19192
 20
7.55601
  0
VERTEX
  8
0
 10
-7.18312
 20
7.57458
  0
VERTEX
  8
0
 10
-7.17411
 20
7.59366
  0
VERTEX
  8
0
 10
-7.16487
 20
7.61322
  0
VERTEX
  8
0
 10
-7.15542
 20
7.6333
  0
VERTEX
  8
0
 10
-7.14573
 20
7.65386
  0
VERTEX
  8
0
 10
-7.13583
 20
7.67493
  0
VERTEX
  8
0
 10
-7.12571
 20
7.69649
  0
VERTEX
  8
0
 10
-6.97145
 20
7.74037
  0
VERTEX
  8
0
 10
-6.97145
 20
7.74037
  0
VERTEX
  8
0
 10
-6.98037
 20
7.72333
  0
VERTEX
  8
0
 10
-6.98926
 20
7.70633
  0
VERTEX
  8
0
 10
-6.99811
 20
7.68935
  0
VERTEX
  8
0
 10
-7.00694
 20
7.6724
  0
VERTEX
  8
0
 10
-7.01571
 20
7.65546
  0
VERTEX
  8
0
 10
-7.02445
 20
7.63855
  0
VERTEX
  8
0
 10
-7.03315
 20
7.62165
  0
VERTEX
  8
0
 10
-7.04182
 20
7.60479
  0
VERTEX
  8
0
 10
-7.05043
 20
7.58793
  0
VERTEX
  8
0
 10
-7.05901
 20
7.5711
  0
VERTEX
  8
0
 10
-7.06755
 20
7.55429
  0
VERTEX
  8
0
 10
-7.07606
 20
7.5375
  0
VERTEX
  8
0
 10
-7.08451
 20
7.52072
  0
VERTEX
  8
0
 10
-7.09294
 20
7.50398
  0
VERTEX
  8
0
 10
-7.10132
 20
7.48724
  0
VERTEX
  8
0
 10
-7.10967
 20
7.47053
  0
VERTEX
  8
0
 10
-7.11799
 20
7.45388
  0
VERTEX
  8
0
 10
-7.12629
 20
7.43726
  0
VERTEX
  8
0
 10
-7.13456
 20
7.42064
  0
VERTEX
  8
0
 10
-7.14281
 20
7.40405
  0
VERTEX
  8
0
 10
-7.15101
 20
7.38746
  0
VERTEX
  8
0
 10
-7.15919
 20
7.37089
  0
VERTEX
  8
0
 10
-7.16734
 20
7.35433
  0
VERTEX
  8
0
 10
-7.17546
 20
7.3378
  0
VERTEX
  8
0
 10
-7.18353
 20
7.32126
  0
VERTEX
  8
0
 10
-7.19158
 20
7.30474
  0
VERTEX
  8
0
 10
-7.1996
 20
7.28824
  0
VERTEX
  8
0
 10
-7.2076
 20
7.27176
  0
VERTEX
  8
0
 10
-7.21555
 20
7.25527
  0
VERTEX
  8
0
 10
-7.22348
 20
7.2388
  0
VERTEX
  8
0
 10
-7.23138
 20
7.22235
  0
VERTEX
  8
0
 10
-7.07721
 20
7.2134
  0
VERTEX
  8
0
 10
-7.09249
 20
7.18897
  0
VERTEX
  8
0
 10
-7.24858
 20
7.18756
  0
VERTEX
  8
0
 10
-7.38456
 20
6.88679
  0
VERTEX
  8
0
 10
-7.52994
 20
6.86834
  0
SEQEND
  8
0
  0
POLYLINE
  8
0
 66
     1
  0
VERTEX
  8
0
 10
-7.55809
 20
6.42284
  0
VERTEX
  8
0
 10
-7.55809
 20
6.42284
  0
VERTEX
  8
0
 10
-7.56178
 20
6.42273
  0
VERTEX
  8
0
 10
-7.56551
 20
6.42243
  0
VERTEX
  8
0
 10
-7.56926
 20
6.42193
  0
VERTEX
  8
0
 10
-7.57305
 20
6.42126
  0
VERTEX
  8
0
 10
-7.57685
 20
6.42036
  0
VERTEX
  8
0
 10
-7.58068
 20
6.41928
  0
VERTEX
  8
0
 10
-7.58453
 20
6.418
  0
VERTEX
  8
0
 10
-7.58842
 20
6.41654
  0
VERTEX
  8
0
 10
-7.59231
 20
6.41484
  0
VERTEX
  8
0
 10
-7.59623
 20
6.41297
  0
VERTEX
  8
0
 10
-7.60018
 20
6.41089
  0
VERTEX
  8
0
 10
-7.60415
 20
6.40863
  0
VERTEX
  8
0
 10
-7.60813
 20
6.40615
  0
VERTEX
  8
0
 10
-7.61215
 20
6.40348
  0
VERTEX
  8
0
 10
-7.61619
 20
6.40061
  0
VERTEX
  8
0
 10
-7.62025
 20
6.39755
  0
VERTEX
  8
0
 10
-7.62436
 20
6.39425
  0
VERTEX
  8
0
 10
-7.62851
 20
6.39079
  0
VERTEX
  8
0
 10
-7.63267
 20
6.38713
  0
VERTEX
  8
0
 10
-7.63686
 20
6.38332
  0
VERTEX
  8
0
 10
-7.64105
 20
6.3793
  0
VERTEX
  8
0
 10
-7.64528
 20
6.37511
  0
VERTEX
  8
0
 10
-7.64953
 20
6.37071
  0
VERTEX
  8
0
 10
-7.6538
 20
6.36615
  0
VERTEX
  8
0
 10
-7.65808
 20
6.36137
  0
VERTEX
  8
0
 10
-7.66238
 20
6.35642
  0
VERTEX
  8
0
 10
-7.66669
 20
6.35126
  0
VERTEX
  8
0
 10
-7.67103
 20
6.34592
  0
VERTEX
  8
0
 10
-7.67537
 20
6.34037
  0
VERTEX
  8
0
 10
-7.67975
 20
6.33463
  0
VERTEX
  8
0
 10
-7.68413
 20
6.32868
  0
VERTEX
  8
0
 10
-7.68854
 20
6.32255
  0
VERTEX
  8
0
 10
-7.69521
 20
6.31315
  0
VERTEX
  8
0
 10
-7.70172
 20
6.30356
  0
VERTEX
  8
0
 10
-7.70803
 20
6.29375
  0
VERTEX
  8
0
 10
-7.71418
 20
6.28375
  0
VERTEX
  8
0
 10
-7.72012
 20
6.27353
  0
VERTEX
  8
0
 10
-7.72589
 20
6.2631
  0
VERTEX
  8
0
 10
-7.73147
 20
6.25246
  0
VERTEX
  8
0
 10
-7.73689
 20
6.24161
  0
VERTEX
  8
0
 10
-7.74208
 20
6.23053
  0
VERTEX
  8
0
 10
-7.74712
 20
6.21924
  0
VERTEX
  8
0
 10
-7.75195
 20
6.20774
  0
VERTEX
  8
0
 10
-7.75662
 20
6.19602
  0
VERTEX
  8
0
 10
-7.76108
 20
6.18407
  0
VERTEX
  8
0
 10
-7.76537
 20
6.17192
  0
VERTEX
  8
0
 10
-7.76947
 20
6.15953
  0
VERTEX
  8
0
 10
-7.7734
 20
6.14693
  0
VERTEX
  8
0
 10
-7.77707
 20
6.13425
  0
VERTEX
  8
0
 10
-7.78052
 20
6.12156
  0
VERTEX
  8
0
 10
-7.78373
 20
6.10884
  0
VERTEX
  8
0
 10
-7.7867
 20
6.09612
  0
VERTEX
  8
0
 10
-7.78943
 20
6.08335
  0
VERTEX
  8
0
 10
-7.79192
 20
6.07059
  0
VERTEX
  8
0
 10
-7.79417
 20
6.05779
  0
VERTEX
  8
0
 10
-7.7962
 20
6.045
  0
VERTEX
  8
0
 10
-7.79797
 20
6.03215
  0
VERTEX
  8
0
 10
-7.79951
 20
6.0193
  0
VERTEX
  8
0
 10
-7.8008
 20
6.00642
  0
VERTEX
  8
0
 10
-7.80188
 20
5.99354
  0
VERTEX
  8
0
 10
-7.80271
 20
5.98062
  0
VERTEX
  8
0
 10
-7.80331
 20
5.96769
  0
VERTEX
  8
0
 10
-7.80367
 20
5.95474
  0
VERTEX
  8
0
 10
-7.80379
 20
5.94178
  0
VERTEX
  8
0
 10
-7.80368
 20
5.93215
  0
VERTEX
  8
0
 10
-7.8034
 20
5.9228
  0
VERTEX
  8
0
 10
-7.8029
 20
5.9137
  0
VERTEX
  8
0
 10
-7.80223
 20
5.90488
  0
VERTEX
  8
0
 10
-7.80135
 20
5.8963
  0
VERTEX
  8
0
 10
-7.8003
 20
5.888
  0
VERTEX
  8
0
 10
-7.79904
 20
5.87997
  0
VERTEX
  8
0
 10
-7.79761
 20
5.87221
  0
VERTEX
  8
0
 10
-7.79596
 20
5.8647
  0
VERTEX
  8
0
 10
-7.79415
 20
5.85746
  0
VERTEX
  8
0
 10
-7.79213
 20
5.85049
  0
VERTEX
  8
0
 10
-7.78994
 20
5.84379
  0
VERTEX
  8
0
 10
-7.78754
 20
5.83735
  0
VERTEX
  8
0
 10
-7.78497
 20
5.83119
  0
VERTEX
  8
0
 10
-7.78221
 20
5.82529
  0
VERTEX
  8
0
 10
-7.77927
 20
5.81967
  0
VERTEX
  8
0
 10
-7.77614
 20
5.81439
  0
VERTEX
  8
0
 10
-7.77288
 20
5.80946
  0
VERTEX
  8
0
 10
-7.76947
 20
5.80486
  0
VERTEX
  8
0
 10
-7.76593
 20
5.80062
  0
VERTEX
  8
0
 10
-7.76223
 20
5.79669
  0
VERTEX
  8
0
 10
-7.7584
 20
5.79311
  0
VERTEX
  8
0
 10
-7.75442
 20
5.78987
  0
VERTEX
  8
0
 10
-7.75031
 20
5.78698
  0
VERTEX
  8
0
 10
-7.74603
 20
5.78441
  0
VERTEX
  8
0
 10
-7.74162
 20
5.78219
  0
VERTEX
  8
0
 10
-7.73705
 20
5.7803
  0
VERTEX
  8
0
 10
-7.73236
 20
5.77877
  0
VERTEX
  8
0
 10
-7.7275
 20
5.77756
  0
VERTEX
  8
0
 10
-7.72251
 20
5.77671
  0
VERTEX
  8
0
 10
-7.71737
 20
5.7762
  0
VERTEX
  8
0
 10
-7.7121
 20
5.77604
  0
VERTEX
  8
0
 10
-7.70839
 20
5.77611
  0
VERTEX
  8
0
 10
-7.70469
 20
5.77637
  0
VERTEX
  8
0
 10
-7.70097
 20
5.77678
  0
VERTEX
  8
0
 10
-7.69726
 20
5.77738
  0
VERTEX
  8
0
 10
-7.69351
 20
5.77813
  0
VERTEX
  8
0
 10
-7.68978
 20
5.77907
  0
VERTEX
  8
0
 10
-7.68603
 20
5.78016
  0
VERTEX
  8
0
 10
-7.68228
 20
5.78145
  0
VERTEX
  8
0
 10
-7.67849
 20
5.78288
  0
VERTEX
  8
0
 10
-7.67471
 20
5.7845
  0
VERTEX
  8
0
 10
-7.6709
 20
5.78628
  0
VERTEX
  8
0
 10
-7.66711
 20
5.78826
  0
VERTEX
  8
0
 10
-7.66328
 20
5.79039
  0
VERTEX
  8
0
 10
-7.65946
 20
5.7927
  0
VERTEX
  8
0
 10
-7.6556
 20
5.79519
  0
VERTEX
  8
0
 10
-7.65176
 20
5.79786
  0
VERTEX
  8
0
 10
-7.64789
 20
5.80067
  0
VERTEX
  8
0
 10
-7.64405
 20
5.80363
  0
VERTEX
  8
0
 10
-7.64021
 20
5.80673
  0
VERTEX
  8
0
 10
-7.63637
 20
5.80998
  0
VERTEX
  8
0
 10
-7.63253
 20
5.81336
  0
VERTEX
  8
0
 10
-7.62871
 20
5.81689
  0
VERTEX
  8
0
 10
-7.62489
 20
5.82057
  0
VERTEX
  8
0
 10
-7.62108
 20
5.82441
  0
VERTEX
  8
0
 10
-7.61727
 20
5.82837
  0
VERTEX
  8
0
 10
-7.61346
 20
5.83249
  0
VERTEX
  8
0
 10
-7.60966
 20
5.83674
  0
VERTEX
  8
0
 10
-7.60588
 20
5.84116
  0
VERTEX
  8
0
 10
-7.6021
 20
5.84571
  0
VERTEX
  8
0
 10
-7.59832
 20
5.85041
  0
VERTEX
  8
0
 10
-7.59456
 20
5.85526
  0
VERTEX
  8
0
 10
-7.59081
 20
5.86027
  0
VERTEX
  8
0
 10
-7.58427
 20
5.86945
  0
VERTEX
  8
0
 10
-7.5779
 20
5.87894
  0
VERTEX
  8
0
 10
-7.57167
 20
5.88872
  0
VERTEX
  8
0
 10
-7.56562
 20
5.89883
  0
VERTEX
  8
0
 10
-7.5597
 20
5.90923
  0
VERTEX
  8
0
 10
-7.55396
 20
5.91994
  0
VERTEX
  8
0
 10
-7.54836
 20
5.93095
  0
VERTEX
  8
0
 10
-7.54292
 20
5.94226
  0
VERTEX
  8
0
 10
-7.53762
 20
5.95386
  0
VERTEX
  8
0
 10
-7.53248
 20
5.96577
  0
VERTEX
  8
0
 10
-7.52748
 20
5.97798
  0
VERTEX
  8
0
 10
-7.52265
 20
5.99049
  0
VERTEX
  8
0
 10
-7.51795
 20
6.00327
  0
VERTEX
  8
0
 10
-7.51343
 20
6.01638
  0
VERTEX
  8
0
 10
-7.50904
 20
6.02978
  0
VERTEX
  8
0
 10
-7.50482
 20
6.04349
  0
VERTEX
  8
0
 10
-7.50079
 20
6.05731
  0
VERTEX
  8
0
 10
-7.49704
 20
6.07108
  0
VERTEX
  8
0
 10
-7.49353
 20
6.08479
  0
VERTEX
  8
0
 10
-7.4903
 20
6.09847
  0
VERTEX
  8
0
 10
-7.48732
 20
6.11208
  0
VERTEX
  8
0
 10
-7.4846
 20
6.12564
  0
VERTEX
  8
0
 10
-7.48214
 20
6.13914
  0
VERTEX
  8
0
 10
-7.47995
 20
6.1526
  0
VERTEX
  8
0
 10
-7.478
 20
6.16599
  0
VERTEX
  8
0
 10
-7.47632
 20
6.17934
  0
VERTEX
  8
0
 10
-7.4749
 20
6.19263
  0
VERTEX
  8
0
 10
-7.47374
 20
6.20589
  0
VERTEX
  8
0
 10
-7.47283
 20
6.21909
  0
VERTEX
  8
0
 10
-7.47218
 20
6.23224
  0
VERTEX
  8
0
 10
-7.47179
 20
6.24534
  0
VERTEX
  8
0
 10
-7.47167
 20
6.2584
  0
VERTEX
  8
0
 10
-7.47176
 20
6.26796
  0
VERTEX
  8
0
 10
-7.47203
 20
6.27727
  0
VERTEX
  8
0
 10
-7.47248
 20
6.28629
  0
VERTEX
  8
0
 10
-7.47312
 20
6.29506
  0
VERTEX
  8
0
 10
-7.47393
 20
6.30354
  0
VERTEX
  8
0
 10
-7.47492
 20
6.31177
  0
VERTEX
  8
0
 10
-7.47609
 20
6.31972
  0
VERTEX
  8
0
 10
-7.47747
 20
6.32742
  0
VERTEX
  8
0
 10
-7.479
 20
6.33483
  0
VERTEX
  8
0
 10
-7.48071
 20
6.34199
  0
VERTEX
  8
0
 10
-7.4826
 20
6.34887
  0
VERTEX
  8
0
 10
-7.4847
 20
6.35551
  0
VERTEX
  8
0
 10
-7.48695
 20
6.36187
  0
VERTEX
  8
0
 10
-7.48938
 20
6.36798
  0
VERTEX
  8
0
 10
-7.49199
 20
6.37383
  0
VERTEX
  8
0
 10
-7.4948
 20
6.37943
  0
VERTEX
  8
0
 10
-7.49773
 20
6.38468
  0
VERTEX
  8
0
 10
-7.5008
 20
6.3896
  0
VERTEX
  8
0
 10
-7.504
 20
6.39418
  0
VERTEX
  8
0
 10
-7.50736
 20
6.39843
  0
VERTEX
  8
0
 10
-7.51084
 20
6.40232
  0
VERTEX
  8
0
 10
-7.51447
 20
6.40589
  0
VERTEX
  8
0
 10
-7.51823
 20
6.40911
  0
VERTEX
  8
0
 10
-7.52213
 20
6.412
  0
VERTEX
  8
0
 10
-7.52615
 20
6.41453
  0
VERTEX
  8
0
 10
-7.53031
 20
6.41673
  0
VERTEX
  8
0
 10
-7.5346
 20
6.41859
  0
VERTEX
  8
0
 10
-7.53904
 20
6.42012
  0
VERTEX
  8
0
 10
-7.5436
 20
6.4213
  0
VERTEX
  8
0
 10
-7.54829
 20
6.42215
  0
VERTEX
  8
0
 10
-7.55312
 20
6.42266
  0
SEQEND
  8
0
  0
POLYLINE
  8
0
 66
     1
  0
VERTEX
  8
0
 10
-7.72013
 20
6.30073
  0
VERTEX
  8
0
 10
-7.72013
 20
6.30073
  0
VERTEX
  8
0
 10
-7.71363
 20
6.31015
  0
VERTEX
  8
0
 10
-7.70715
 20
6.3193
  0
VERTEX
  8
0
 10
-7.70065
 20
6.32814
  0
VERTEX
  8
0
 10
-7.69417
 20
6.33669
  0
VERTEX
  8
0
 10
-7.68766
 20
6.34494
  0
VERTEX
  8
0
 10
-7.68115
 20
6.3529
  0
VERTEX
  8
0
 10
-7.67462
 20
6.36056
  0
VERTEX
  8
0
 10
-7.6681
 20
6.36794
  0
VERTEX
  8
0
 10
-7.66153
 20
6.37501
  0
VERTEX
  8
0
 10
-7.65497
 20
6.38179
  0
VERTEX
  8
0
 10
-7.64838
 20
6.38829
  0
VERTEX
  8
0
 10
-7.6418
 20
6.3945
  0
VERTEX
  8
0
 10
-7.63518
 20
6.40041
  0
VERTEX
  8
0
 10
-7.62855
 20
6.40604
  0
VERTEX
  8
0
 10
-7.6219
 20
6.41138
  0
VERTEX
  8
0
 10
-7.61524
 20
6.41644
  0
VERTEX
  8
0
 10
-7.60858
 20
6.42118
  0
VERTEX
  8
0
 10
-7.60192
 20
6.42562
  0
VERTEX
  8
0
 10
-7.59523
 20
6.42974
  0
VERTEX
  8
0
 10
-7.58854
 20
6.43357
  0
VERTEX
  8
0
 10
-7.58182
 20
6.43707
  0
VERTEX
  8
0
 10
-7.5751
 20
6.44028
  0
VERTEX
  8
0
 10
-7.56835
 20
6.44317
  0
VERTEX
  8
0
 10
-7.56161
 20
6.44578
  0
VERTEX
  8
0
 10
-7.55483
 20
6.44805
  0
VERTEX
  8
0
 10
-7.54805
 20
6.45003
  0
VERTEX
  8
0
 10
-7.54125
 20
6.4517
  0
VERTEX
  8
0
 10
-7.53446
 20
6.45308
  0
VERTEX
  8
0
 10
-7.52763
 20
6.45413
  0
VERTEX
  8
0
 10
-7.52082
 20
6.45489
  0
VERTEX
  8
0
 10
-7.51398
 20
6.45534
  0
VERTEX
  8
0
 10
-7.50715
 20
6.45551
  0
VERTEX
  8
0
 10
-7.49879
 20
6.45528
  0
VERTEX
  8
0
 10
-7.49065
 20
6.45462
  0
VERTEX
  8
0
 10
-7.48272
 20
6.4535
  0
VERTEX
  8
0
 10
-7.47502
 20
6.45196
  0
VERTEX
  8
0
 10
-7.4675
 20
6.44996
  0
VERTEX
  8
0
 10
-7.46022
 20
6.44752
  0
VERTEX
  8
0
 10
-7.45313
 20
6.44463
  0
VERTEX
  8
0
 10
-7.44627
 20
6.44132
  0
VERTEX
  8
0
 10
-7.43959
 20
6.43753
  0
VERTEX
  8
0
 10
-7.43313
 20
6.43332
  0
VERTEX
  8
0
 10
-7.42688
 20
6.42865
  0
VERTEX
  8
0
 10
-7.42086
 20
6.42354
  0
VERTEX
  8
0
 10
-7.41502
 20
6.41797
  0
VERTEX
  8
0
 10
-7.4094
 20
6.41198
  0
VERTEX
  8
0
 10
-7.40399
 20
6.40552
  0
VERTEX
  8
0
 10
-7.3988
 20
6.39864
  0
VERTEX
  8
0
 10
-7.39385
 20
6.39138
  0
VERTEX
  8
0
 10
-7.38923
 20
6.38383
  0
VERTEX
  8
0
 10
-7.38491
 20
6.37597
  0
VERTEX
  8
0
 10
-7.38092
 20
6.36784
  0
VERTEX
  8
0
 10
-7.37724
 20
6.35938
  0
VERTEX
  8
0
 10
-7.37389
 20
6.35065
  0
VERTEX
  8
0
 10
-7.37085
 20
6.34159
  0
VERTEX
  8
0
 10
-7.36814
 20
6.33226
  0
VERTEX
  8
0
 10
-7.36573
 20
6.3226
  0
VERTEX
  8
0
 10
-7.36364
 20
6.31267
  0
VERTEX
  8
0
 10
-7.36187
 20
6.30241
  0
VERTEX
  8
0
 10
-7.36044
 20
6.29188
  0
VERTEX
  8
0
 10
-7.35931
 20
6.28102
  0
VERTEX
  8
0
 10
-7.35851
 20
6.26987
  0
VERTEX
  8
0
 10
-7.35803
 20
6.25841
  0
VERTEX
  8
0
 10
-7.35788
 20
6.24668
  0
VERTEX
  8
0
 10
-7.35801
 20
6.2356
  0
VERTEX
  8
0
 10
-7.35846
 20
6.22452
  0
VERTEX
  8
0
 10
-7.35919
 20
6.2134
  0
VERTEX
  8
0
 10
-7.36024
 20
6.20226
  0
VERTEX
  8
0
 10
-7.36156
 20
6.19108
  0
VERTEX
  8
0
 10
-7.36319
 20
6.17988
  0
VERTEX
  8
0
 10
-7.36511
 20
6.16865
  0
VERTEX
  8
0
 10
-7.36735
 20
6.15741
  0
VERTEX
  8
0
 10
-7.36986
 20
6.14611
  0
VERTEX
  8
0
 10
-7.37268
 20
6.1348
  0
VERTEX
  8
0
 10
-7.3758
 20
6.12345
  0
VERTEX
  8
0
 10
-7.37922
 20
6.11209
  0
VERTEX
  8
0
 10
-7.38291
 20
6.10068
  0
VERTEX
  8
0
 10
-7.38693
 20
6.08924
  0
VERTEX
  8
0
 10
-7.39125
 20
6.07777
  0
VERTEX
  8
0
 10
-7.39587
 20
6.06628
  0
VERTEX
  8
0
 10
-7.4007
 20
6.05479
  0
VERTEX
  8
0
 10
-7.40577
 20
6.04342
  0
VERTEX
  8
0
 10
-7.41108
 20
6.03217
  0
VERTEX
  8
0
 10
-7.41663
 20
6.02104
  0
VERTEX
  8
0
 10
-7.42242
 20
6.01001
  0
VERTEX
  8
0
 10
-7.42845
 20
5.99912
  0
VERTEX
  8
0
 10
-7.43472
 20
5.98833
  0
VERTEX
  8
0
 10
-7.44123
 20
5.97768
  0
VERTEX
  8
0
 10
-7.44796
 20
5.96711
  0
VERTEX
  8
0
 10
-7.45495
 20
5.95667
  0
VERTEX
  8
0
 10
-7.46218
 20
5.94633
  0
VERTEX
  8
0
 10
-7.46965
 20
5.93613
  0
VERTEX
  8
0
 10
-7.47733
 20
5.92602
  0
VERTEX
  8
0
 10
-7.48528
 20
5.91604
  0
VERTEX
  8
0
 10
-7.49345
 20
5.90616
  0
VERTEX
  8
0
 10
-7.50188
 20
5.89641
  0
VERTEX
  8
0
 10
-7.50925
 20
5.88822
  0
VERTEX
  8
0
 10
-7.51665
 20
5.88029
  0
VERTEX
  8
0
 10
-7.52408
 20
5.87256
  0
VERTEX
  8
0
 10
-7.53156
 20
5.86509
  0
VERTEX
  8
0
 10
-7.53905
 20
5.85782
  0
VERTEX
  8
0
 10
-7.54659
 20
5.8508
  0
VERTEX
  8
0
 10
-7.55414
 20
5.84399
  0
VERTEX
  8
0
 10
-7.56175
 20
5.83744
  0
VERTEX
  8
0
 10
-7.56936
 20
5.83109
  0
VERTEX
  8
0
 10
-7.57702
 20
5.82499
  0
VERTEX
  8
0
 10
-7.58471
 20
5.81911
  0
VERTEX
  8
0
 10
-7.59244
 20
5.81349
  0
VERTEX
  8
0
 10
-7.60019
 20
5.80807
  0
VERTEX
  8
0
 10
-7.608
 20
5.80291
  0
VERTEX
  8
0
 10
-7.61582
 20
5.79798
  0
VERTEX
  8
0
 10
-7.6237
 20
5.7933
  0
VERTEX
  8
0
 10
-7.63153
 20
5.78885
  0
VERTEX
  8
0
 10
-7.63932
 20
5.78471
  0
VERTEX
  8
0
 10
-7.64701
 20
5.78084
  0
VERTEX
  8
0
 10
-7.65466
 20
5.77729
  0
VERTEX
  8
0
 10
-7.66221
 20
5.774
  0
VERTEX
  8
0
 10
-7.66971
 20
5.77102
  0
VERTEX
  8
0
 10
-7.67713
 20
5.7683
  0
VERTEX
  8
0
 10
-7.68451
 20
5.7659
  0
VERTEX
  8
0
 10
-7.69179
 20
5.76375
  0
VERTEX
  8
0
 10
-7.69902
 20
5.76191
  0
VERTEX
  8
0
 10
-7.70616
 20
5.76035
  0
VERTEX
  8
0
 10
-7.71326
 20
5.75909
  0
VERTEX
  8
0
 10
-7.72027
 20
5.75808
  0
VERTEX
  8
0
 10
-7.72723
 20
5.75738
  0
VERTEX
  8
0
 10
-7.7341
 20
5.75696
  0
VERTEX
  8
0
 10
-7.74094
 20
5.75683
  0
VERTEX
  8
0
 10
-7.75026
 20
5.75707
  0
VERTEX
  8
0
 10
-7.75933
 20
5.75782
  0
VERTEX
  8
0
 10
-7.76813
 20
5.75906
  0
VERTEX
  8
0
 10
-7.77667
 20
5.76081
  0
VERTEX
  8
0
 10
-7.78493
 20
5.76305
  0
VERTEX
  8
0
 10
-7.79293
 20
5.7658
  0
VERTEX
  8
0
 10
-7.80066
 20
5.76904
  0
VERTEX
  8
0
 10
-7.80815
 20
5.7728
  0
VERTEX
  8
0
 10
-7.81535
 20
5.77704
  0
VERTEX
  8
0
 10
-7.82231
 20
5.78179
  0
VERTEX
  8
0
 10
-7.829
 20
5.78704
  0
VERTEX
  8
0
 10
-7.83544
 20
5.79281
  0
VERTEX
  8
0
 10
-7.8416
 20
5.79906
  0
VERTEX
  8
0
 10
-7.84753
 20
5.80582
  0
VERTEX
  8
0
 10
-7.85319
 20
5.81309
  0
VERTEX
  8
0
 10
-7.85861
 20
5.82087
  0
VERTEX
  8
0
 10
-7.86369
 20
5.82902
  0
VERTEX
  8
0
 10
-7.86847
 20
5.83758
  0
VERTEX
  8
0
 10
-7.87292
 20
5.84653
  0
VERTEX
  8
0
 10
-7.87705
 20
5.85588
  0
VERTEX
  8
0
 10
-7.88084
 20
5.8656
  0
VERTEX
  8
0
 10
-7.88431
 20
5.87573
  0
VERTEX
  8
0
 10
-7.88745
 20
5.88624
  0
VERTEX
  8
0
 10
-7.89028
 20
5.89715
  0
VERTEX
  8
0
 10
-7.89275
 20
5.90843
  0
VERTEX
  8
0
 10
-7.89491
 20
5.92012
  0
VERTEX
  8
0
 10
-7.89673
 20
5.93219
  0
VERTEX
  8
0
 10
-7.89824
 20
5.94466
  0
VERTEX
  8
0
 10
-7.8994
 20
5.95751
  0
VERTEX
  8
0
 10
-7.90023
 20
5.97076
  0
VERTEX
  8
0
 10
-7.90073
 20
5.98439
  0
VERTEX
  8
0
 10
-7.90091
 20
5.99844
  0
VERTEX
  8
0
 10
-7.90058
 20
6.02074
  0
VERTEX
  8
0
 10
-7.89963
 20
6.04306
  0
VERTEX
  8
0
 10
-7.89805
 20
6.0654
  0
VERTEX
  8
0
 10
-7.89584
 20
6.08776
  0
VERTEX
  8
0
 10
-7.89298
 20
6.11011
  0
VERTEX
  8
0
 10
-7.8895
 20
6.1325
  0
VERTEX
  8
0
 10
-7.88538
 20
6.1549
  0
VERTEX
  8
0
 10
-7.88065
 20
6.17732
  0
VERTEX
  8
0
 10
-7.87526
 20
6.19975
  0
VERTEX
  8
0
 10
-7.86925
 20
6.2222
  0
VERTEX
  8
0
 10
-7.86261
 20
6.24466
  0
VERTEX
  8
0
 10
-7.85534
 20
6.26715
  0
VERTEX
  8
0
 10
-7.84743
 20
6.28964
  0
VERTEX
  8
0
 10
-7.83889
 20
6.31217
  0
VERTEX
  8
0
 10
-7.82972
 20
6.33471
  0
VERTEX
  8
0
 10
-7.81993
 20
6.35728
  0
VERTEX
  8
0
 10
-7.8095
 20
6.37972
  0
VERTEX
  8
0
 10
-7.79855
 20
6.40195
  0
VERTEX
  8
0
 10
-7.78708
 20
6.42395
  0
VERTEX
  8
0
 10
-7.77508
 20
6.44573
  0
VERTEX
  8
0
 10
-7.76254
 20
6.46727
  0
VERTEX
  8
0
 10
-7.74947
 20
6.48858
  0
VERTEX
  8
0
 10
-7.73587
 20
6.50967
  0
VERTEX
  8
0
 10
-7.72175
 20
6.53055
  0
VERTEX
  8
0
 10
-7.70708
 20
6.55118
  0
VERTEX
  8
0
 10
-7.69189
 20
6.5716
  0
VERTEX
  8
0
 10
-7.67617
 20
6.59179
  0
VERTEX
  8
0
 10
-7.65992
 20
6.61177
  0
VERTEX
  8
0
 10
-7.64313
 20
6.63151
  0
VERTEX
  8
0
 10
-7.62582
 20
6.65104
  0
VERTEX
  8
0
 10
-7.60797
 20
6.67033
  0
VERTEX
  8
0
 10
-7.5896
 20
6.68942
  0
VERTEX
  8
0
 10
-7.57627
 20
6.70271
  0
VERTEX
  8
0
 10
-7.56279
 20
6.71565
  0
VERTEX
  8
0
 10
-7.54916
 20
6.72825
  0
VERTEX
  8
0
 10
-7.53539
 20
6.74051
  0
VERTEX
  8
0
 10
-7.52145
 20
6.7524
  0
VERTEX
  8
0
 10
-7.50736
 20
6.76396
  0
VERTEX
  8
0
 10
-7.49311
 20
6.77517
  0
VERTEX
  8
0
 10
-7.47872
 20
6.78604
  0
VERTEX
  8
0
 10
-7.46415
 20
6.79656
  0
VERTEX
  8
0
 10
-7.44944
 20
6.80674
  0
VERTEX
  8
0
 10
-7.43457
 20
6.81657
  0
VERTEX
  8
0
 10
-7.41955
 20
6.82608
  0
VERTEX
  8
0
 10
-7.40436
 20
6.83523
  0
VERTEX
  8
0
 10
-7.38902
 20
6.84406
  0
VERTEX
  8
0
 10
-7.37353
 20
6.85254
  0
VERTEX
  8
0
 10
-7.35788
 20
6.8607
  0
VERTEX
  8
0
 10
-7.34223
 20
6.86835
  0
VERTEX
  8
0
 10
-7.32676
 20
6.87554
  0
VERTEX
  8
0
 10
-7.31144
 20
6.88221
  0
VERTEX
  8
0
 10
-7.29631
 20
6.88842
  0
VERTEX
  8
0
 10
-7.28132
 20
6.89412
  0
VERTEX
  8
0
 10
-7.26653
 20
6.89934
  0
VERTEX
  8
0
 10
-7.25189
 20
6.90405
  0
VERTEX
  8
0
 10
-7.23743
 20
6.90828
  0
VERTEX
  8
0
 10
-7.22312
 20
6.912
  0
VERTEX
  8
0
 10
-7.20899
 20
6.91523
  0
VERTEX
  8
0
 10
-7.19502
 20
6.91796
  0
VERTEX
  8
0
 10
-7.18124
 20
6.92021
  0
VERTEX
  8
0
 10
-7.16761
 20
6.92194
  0
VERTEX
  8
0
 10
-7.15417
 20
6.92319
  0
VERTEX
  8
0
 10
-7.14088
 20
6.92394
  0
VERTEX
  8
0
 10
-7.1278
 20
6.9242
  0
VERTEX
  8
0
 10
-7.11725
 20
6.92402
  0
VERTEX
  8
0
 10
-7.10701
 20
6.92351
  0
VERTEX
  8
0
 10
-7.09704
 20
6.92266
  0
VERTEX
  8
0
 10
-7.08737
 20
6.92149
  0
VERTEX
  8
0
 10
-7.07796
 20
6.91996
  0
VERTEX
  8
0
 10
-7.06884
 20
6.91811
  0
VERTEX
  8
0
 10
-7.05999
 20
6.91593
  0
VERTEX
  8
0
 10
-7.05143
 20
6.91342
  0
VERTEX
  8
0
 10
-7.04312
 20
6.91056
  0
VERTEX
  8
0
 10
-7.0351
 20
6.90737
  0
VERTEX
  8
0
 10
-7.02734
 20
6.90385
  0
VERTEX
  8
0
 10
-7.01988
 20
6.90001
  0
VERTEX
  8
0
 10
-7.01267
 20
6.89582
  0
VERTEX
  8
0
 10
-7.00574
 20
6.89131
  0
VERTEX
  8
0
 10
-6.99907
 20
6.88647
  0
VERTEX
  8
0
 10
-6.99269
 20
6.88132
  0
VERTEX
  8
0
 10
-6.98667
 20
6.8758
  0
VERTEX
  8
0
 10
-6.98104
 20
6.87007
  0
VERTEX
  8
0
 10
-6.9758
 20
6.86411
  0
VERTEX
  8
0
 10
-6.97095
 20
6.85793
  0
VERTEX
  8
0
 10
-6.96647
 20
6.85151
  0
VERTEX
  8
0
 10
-6.96238
 20
6.84486
  0
VERTEX
  8
0
 10
-6.95868
 20
6.83799
  0
VERTEX
  8
0
 10
-6.95538
 20
6.8309
  0
VERTEX
  8
0
 10
-6.95244
 20
6.82356
  0
VERTEX
  8
0
 10
-6.9499
 20
6.816
  0
VERTEX
  8
0
 10
-6.94775
 20
6.80822
  0
VERTEX
  8
0
 10
-6.946
 20
6.80021
  0
VERTEX
  8
0
 10
-6.94463
 20
6.79196
  0
VERTEX
  8
0
 10
-6.94366
 20
6.78348
  0
VERTEX
  8
0
 10
-6.94307
 20
6.77477
  0
VERTEX
  8
0
 10
-6.94288
 20
6.76584
  0
VERTEX
  8
0
 10
-6.94297
 20
6.75989
  0
VERTEX
  8
0
 10
-6.94327
 20
6.75403
  0
VERTEX
  8
0
 10
-6.94375
 20
6.74826
  0
VERTEX
  8
0
 10
-6.94445
 20
6.7426
  0
VERTEX
  8
0
 10
-6.94534
 20
6.73701
  0
VERTEX
  8
0
 10
-6.94643
 20
6.73153
  0
VERTEX
  8
0
 10
-6.94772
 20
6.72612
  0
VERTEX
  8
0
 10
-6.94922
 20
6.72082
  0
VERTEX
  8
0
 10
-6.95089
 20
6.71559
  0
VERTEX
  8
0
 10
-6.95278
 20
6.71047
  0
VERTEX
  8
0
 10
-6.95485
 20
6.70542
  0
VERTEX
  8
0
 10
-6.95714
 20
6.70048
  0
VERTEX
  8
0
 10
-6.95962
 20
6.69561
  0
VERTEX
  8
0
 10
-6.9623
 20
6.69085
  0
VERTEX
  8
0
 10
-6.96517
 20
6.68618
  0
VERTEX
  8
0
 10
-6.96826
 20
6.68161
  0
VERTEX
  8
0
 10
-6.97147
 20
6.67718
  0
VERTEX
  8
0
 10
-6.97482
 20
6.67297
  0
VERTEX
  8
0
 10
-6.97826
 20
6.66897
  0
VERTEX
  8
0
 10
-6.98183
 20
6.6652
  0
VERTEX
  8
0
 10
-6.98549
 20
6.66161
  0
VERTEX
  8
0
 10
-6.98928
 20
6.65825
  0
VERTEX
  8
0
 10
-6.99316
 20
6.65509
  0
VERTEX
  8
0
 10
-6.99718
 20
6.65216
  0
VERTEX
  8
0
 10
-7.00128
 20
6.64941
  0
VERTEX
  8
0
 10
-7.00551
 20
6.6469
  0
VERTEX
  8
0
 10
-7.00984
 20
6.64458
  0
VERTEX
  8
0
 10
-7.0143
 20
6.64249
  0
VERTEX
  8
0
 10
-7.01884
 20
6.64059
  0
VERTEX
  8
0
 10
-7.02351
 20
6.63893
  0
VERTEX
  8
0
 10
-7.02828
 20
6.63747
  0
VERTEX
  8
0
 10
-7.03249
 20
6.64145
  0
VERTEX
  8
0
 10
-7.03249
 20
6.64145
  0
VERTEX
  8
0
 10
-7.03159
 20
6.64709
  0
VERTEX
  8
0
 10
-7.03077
 20
6.65257
  0
VERTEX
  8
0
 10
-7.02999
 20
6.65783
  0
VERTEX
  8
0
 10
-7.02929
 20
6.66292
  0
VERTEX
  8
0
 10
-7.02862
 20
6.66779
  0
VERTEX
  8
0
 10
-7.02802
 20
6.67249
  0
VERTEX
  8
0
 10
-7.02748
 20
6.67698
  0
VERTEX
  8
0
 10
-7.027
 20
6.6813
  0
VERTEX
  8
0
 10
-7.02655
 20
6.68539
  0
VERTEX
  8
0
 10
-7.02618
 20
6.68931
  0
VERTEX
  8
0
 10
-7.02585
 20
6.69301
  0
VERTEX
  8
0
 10
-7.02561
 20
6.69654
  0
VERTEX
  8
0
 10
-7.0254
 20
6.69985
  0
VERTEX
  8
0
 10
-7.02525
 20
6.70297
  0
VERTEX
  8
0
 10
-7.02516
 20
6.70589
  0
VERTEX
  8
0
 10
-7.02515
 20
6.70863
  0
VERTEX
  8
0
 10
-7.02531
 20
6.71891
  0
VERTEX
  8
0
 10
-7.02585
 20
6.72898
  0
VERTEX
  8
0
 10
-7.02672
 20
6.73884
  0
VERTEX
  8
0
 10
-7.02797
 20
6.74848
  0
VERTEX
  8
0
 10
-7.02955
 20
6.75789
  0
VERTEX
  8
0
 10
-7.0315
 20
6.7671
  0
VERTEX
  8
0
 10
-7.03379
 20
6.77607
  0
VERTEX
  8
0
 10
-7.03646
 20
6.78484
  0
VERTEX
  8
0
 10
-7.03945
 20
6.79336
  0
VERTEX
  8
0
 10
-7.04281
 20
6.80167
  0
VERTEX
  8
0
 10
-7.04651
 20
6.80975
  0
VERTEX
  8
0
 10
-7.05059
 20
6.81762
  0
VERTEX
  8
0
 10
-7.055
 20
6.82525
  0
VERTEX
  8
0
 10
-7.05978
 20
6.83266
  0
VERTEX
  8
0
 10
-7.0649
 20
6.83985
  0
VERTEX
  8
0
 10
-7.07039
 20
6.84681
  0
VERTEX
  8
0
 10
-7.07612
 20
6.85344
  0
VERTEX
  8
0
 10
-7.08206
 20
6.85965
  0
VERTEX
  8
0
 10
-7.08815
 20
6.86541
  0
VERTEX
  8
0
 10
-7.09444
 20
6.87076
  0
VERTEX
  8
0
 10
-7.10089
 20
6.87565
  0
VERTEX
  8
0
 10
-7.10752
 20
6.88014
  0
VERTEX
  8
0
 10
-7.11433
 20
6.88418
  0
VERTEX
  8
0
 10
-7.12133
 20
6.88781
  0
VERTEX
  8
0
 10
-7.12849
 20
6.89099
  0
VERTEX
  8
0
 10
-7.13584
 20
6.89375
  0
VERTEX
  8
0
 10
-7.14337
 20
6.89608
  0
VERTEX
  8
0
 10
-7.15108
 20
6.898
  0
VERTEX
  8
0
 10
-7.15897
 20
6.89947
  0
VERTEX
  8
0
 10
-7.16704
 20
6.90054
  0
VERTEX
  8
0
 10
-7.17529
 20
6.90117
  0
VERTEX
  8
0
 10
-7.18375
 20
6.9014
  0
VERTEX
  8
0
 10
-7.1985
 20
6.90077
  0
VERTEX
  8
0
 10
-7.21348
 20
6.89891
  0
VERTEX
  8
0
 10
-7.22865
 20
6.89581
  0
VERTEX
  8
0
 10
-7.24405
 20
6.89148
  0
VERTEX
  8
0
 10
-7.25964
 20
6.8859
  0
VERTEX
  8
0
 10
-7.27546
 20
6.8791
  0
VERTEX
  8
0
 10
-7.29147
 20
6.87105
  0
VERTEX
  8
0
 10
-7.30771
 20
6.86179
  0
VERTEX
  8
0
 10
-7.32414
 20
6.85126
  0
VERTEX
  8
0
 10
-7.3408
 20
6.83951
  0
VERTEX
  8
0
 10
-7.35765
 20
6.82653
  0
VERTEX
  8
0
 10
-7.37473
 20
6.81232
  0
VERTEX
  8
0
 10
-7.392
 20
6.79686
  0
VERTEX
  8
0
 10
-7.40951
 20
6.78019
  0
VERTEX
  8
0
 10
-7.42722
 20
6.76228
  0
VERTEX
  8
0
 10
-7.44516
 20
6.74315
  0
VERTEX
  8
0
 10
-7.46316
 20
6.72288
  0
VERTEX
  8
0
 10
-7.48111
 20
6.70167
  0
VERTEX
  8
0
 10
-7.49899
 20
6.6795
  0
VERTEX
  8
0
 10
-7.51682
 20
6.65638
  0
VERTEX
  8
0
 10
-7.53455
 20
6.63229
  0
VERTEX
  8
0
 10
-7.55224
 20
6.60726
  0
VERTEX
  8
0
 10
-7.56985
 20
6.58125
  0
VERTEX
  8
0
 10
-7.58741
 20
6.55431
  0
VERTEX
  8
0
 10
-7.60487
 20
6.52638
  0
VERTEX
  8
0
 10
-7.6223
 20
6.49752
  0
VERTEX
  8
0
 10
-7.63964
 20
6.46767
  0
VERTEX
  8
0
 10
-7.65694
 20
6.43689
  0
VERTEX
  8
0
 10
-7.67414
 20
6.40512
  0
VERTEX
  8
0
 10
-7.6913
 20
6.37241
  0
VERTEX
  8
0
 10
-7.70837
 20
6.33872
  0
VERTEX
  8
0
 10
-7.72013
 20
6.30073
  0
SEQEND
  8
0
  0
POLYLINE
  8
0
 66
     1
  0
VERTEX
  8
0
 10
-7.38836
 20
5.27649
  0
VERTEX
  8
0
 10
-7.38836
 20
5.27649
  0
VERTEX
  8
0
 10
-7.40108
 20
5.27467
  0
VERTEX
  8
0
 10
-7.41344
 20
5.27234
  0
VERTEX
  8
0
 10
-7.42544
 20
5.26948
  0
VERTEX
  8
0
 10
-7.43708
 20
5.26613
  0
VERTEX
  8
0
 10
-7.44836
 20
5.26224
  0
VERTEX
  8
0
 10
-7.45928
 20
5.25784
  0
VERTEX
  8
0
 10
-7.46984
 20
5.25293
  0
VERTEX
  8
0
 10
-7.48005
 20
5.24751
  0
VERTEX
  8
0
 10
-7.48989
 20
5.24156
  0
VERTEX
  8
0
 10
-7.49937
 20
5.23512
  0
VERTEX
  8
0
 10
-7.50849
 20
5.22815
  0
VERTEX
  8
0
 10
-7.51727
 20
5.22069
  0
VERTEX
  8
0
 10
-7.52567
 20
5.2127
  0
VERTEX
  8
0
 10
-7.53373
 20
5.20422
  0
VERTEX
  8
0
 10
-7.54141
 20
5.19523
  0
VERTEX
  8
0
 10
-7.54876
 20
5.18575
  0
VERTEX
  8
0
 10
-7.55568
 20
5.17574
  0
VERTEX
  8
0
 10
-7.56217
 20
5.16536
  0
VERTEX
  8
0
 10
-7.56819
 20
5.1546
  0
VERTEX
  8
0
 10
-7.57378
 20
5.14348
  0
VERTEX
  8
0
 10
-7.5789
 20
5.13196
  0
VERTEX
  8
0
 10
-7.5836
 20
5.12008
  0
VERTEX
  8
0
 10
-7.58784
 20
5.10781
  0
VERTEX
  8
0
 10
-7.59164
 20
5.09518
  0
VERTEX
  8
0
 10
-7.59498
 20
5.08214
  0
VERTEX
  8
0
 10
-7.59788
 20
5.06873
  0
VERTEX
  8
0
 10
-7.60032
 20
5.05494
  0
VERTEX
  8
0
 10
-7.60234
 20
5.04078
  0
VERTEX
  8
0
 10
-7.60389
 20
5.02621
  0
VERTEX
  8
0
 10
-7.60501
 20
5.01129
  0
VERTEX
  8
0
 10
-7.60568
 20
4.99597
  0
VERTEX
  8
0
 10
-7.60591
 20
4.98028
  0
VERTEX
  8
0
 10
-7.60571
 20
4.96509
  0
VERTEX
  8
0
 10
-7.60517
 20
4.95023
  0
VERTEX
  8
0
 10
-7.60424
 20
4.93568
  0
VERTEX
  8
0
 10
-7.60298
 20
4.92147
  0
VERTEX
  8
0
 10
-7.60133
 20
4.90757
  0
VERTEX
  8
0
 10
-7.59933
 20
4.89399
  0
VERTEX
  8
0
 10
-7.59696
 20
4.88073
  0
VERTEX
  8
0
 10
-7.59423
 20
4.86781
  0
VERTEX
  8
0
 10
-7.59111
 20
4.85518
  0
VERTEX
  8
0
 10
-7.58764
 20
4.84289
  0
VERTEX
  8
0
 10
-7.5838
 20
4.83091
  0
VERTEX
  8
0
 10
-7.57961
 20
4.81925
  0
VERTEX
  8
0
 10
-7.57502
 20
4.8079
  0
VERTEX
  8
0
 10
-7.57009
 20
4.79688
  0
VERTEX
  8
0
 10
-7.56478
 20
4.78617
  0
VERTEX
  8
0
 10
-7.55912
 20
4.77579
  0
VERTEX
  8
0
 10
-7.55316
 20
4.7659
  0
VERTEX
  8
0
 10
-7.54707
 20
4.75666
  0
VERTEX
  8
0
 10
-7.54082
 20
4.74804
  0
VERTEX
  8
0
 10
-7.53445
 20
4.74008
  0
VERTEX
  8
0
 10
-7.5279
 20
4.73274
  0
VERTEX
  8
0
 10
-7.52122
 20
4.72605
  0
VERTEX
  8
0
 10
-7.51439
 20
4.71999
  0
VERTEX
  8
0
 10
-7.50742
 20
4.71458
  0
VERTEX
  8
0
 10
-7.50027
 20
4.70978
  0
VERTEX
  8
0
 10
-7.49298
 20
4.70563
  0
VERTEX
  8
0
 10
-7.48553
 20
4.70212
  0
VERTEX
  8
0
 10
-7.47793
 20
4.69926
  0
VERTEX
  8
0
 10
-7.47016
 20
4.69702
  0
VERTEX
  8
0
 10
-7.46225
 20
4.69543
  0
VERTEX
  8
0
 10
-7.45417
 20
4.69447
  0
VERTEX
  8
0
 10
-7.44594
 20
4.69416
  0
VERTEX
  8
0
 10
-7.43808
 20
4.69443
  0
VERTEX
  8
0
 10
-7.43038
 20
4.69524
  0
VERTEX
  8
0
 10
-7.42281
 20
4.69659
  0
VERTEX
  8
0
 10
-7.41541
 20
4.69851
  0
VERTEX
  8
0
 10
-7.40814
 20
4.70094
  0
VERTEX
  8
0
 10
-7.40102
 20
4.70394
  0
VERTEX
  8
0
 10
-7.39405
 20
4.70748
  0
VERTEX
  8
0
 10
-7.38723
 20
4.71156
  0
VERTEX
  8
0
 10
-7.38055
 20
4.71618
  0
VERTEX
  8
0
 10
-7.37403
 20
4.72134
  0
VERTEX
  8
0
 10
-7.36765
 20
4.72704
  0
VERTEX
  8
0
 10
-7.36144
 20
4.7333
  0
VERTEX
  8
0
 10
-7.35536
 20
4.74008
  0
VERTEX
  8
0
 10
-7.34946
 20
4.74743
  0
VERTEX
  8
0
 10
-7.3437
 20
4.75531
  0
VERTEX
  8
0
 10
-7.33811
 20
4.76374
  0
VERTEX
  8
0
 10
-7.3327
 20
4.77253
  0
VERTEX
  8
0
 10
-7.32766
 20
4.78156
  0
VERTEX
  8
0
 10
-7.32295
 20
4.79083
  0
VERTEX
  8
0
 10
-7.31861
 20
4.80035
  0
VERTEX
  8
0
 10
-7.31459
 20
4.8101
  0
VERTEX
  8
0
 10
-7.31095
 20
4.82012
  0
VERTEX
  8
0
 10
-7.30763
 20
4.83038
  0
VERTEX
  8
0
 10
-7.30469
 20
4.8409
  0
VERTEX
  8
0
 10
-7.30206
 20
4.85165
  0
VERTEX
  8
0
 10
-7.29981
 20
4.86266
  0
VERTEX
  8
0
 10
-7.29789
 20
4.87392
  0
VERTEX
  8
0
 10
-7.29633
 20
4.88544
  0
VERTEX
  8
0
 10
-7.2951
 20
4.8972
  0
VERTEX
  8
0
 10
-7.29425
 20
4.90923
  0
VERTEX
  8
0
 10
-7.29372
 20
4.9215
  0
VERTEX
  8
0
 10
-7.29356
 20
4.93404
  0
VERTEX
  8
0
 10
-7.29387
 20
4.94589
  0
VERTEX
  8
0
 10
-7.29482
 20
4.95872
  0
VERTEX
  8
0
 10
-7.29639
 20
4.97251
  0
VERTEX
  8
0
 10
-7.2986
 20
4.98728
  0
VERTEX
  8
0
 10
-7.30143
 20
5.00301
  0
VERTEX
  8
0
 10
-7.30492
 20
5.01972
  0
VERTEX
  8
0
 10
-7.30902
 20
5.03739
  0
VERTEX
  8
0
 10
-7.31377
 20
5.05605
  0
VERTEX
  8
0
 10
-7.31913
 20
5.07566
  0
VERTEX
  8
0
 10
-7.32514
 20
5.09625
  0
VERTEX
  8
0
 10
-7.33176
 20
5.11782
  0
VERTEX
  8
0
 10
-7.33904
 20
5.14038
  0
VERTEX
  8
0
 10
-7.34694
 20
5.1639
  0
VERTEX
  8
0
 10
-7.35548
 20
5.18841
  0
VERTEX
  8
0
 10
-7.36464
 20
5.21388
  0
VERTEX
  8
0
 10
-7.37446
 20
5.24035
  0
VERTEX
  8
0
 10
-7.37558
 20
5.24336
  0
VERTEX
  8
0
 10
-7.37667
 20
5.24628
  0
VERTEX
  8
0
 10
-7.37772
 20
5.24909
  0
VERTEX
  8
0
 10
-7.37875
 20
5.25181
  0
VERTEX
  8
0
 10
-7.37973
 20
5.25442
  0
VERTEX
  8
0
 10
-7.38068
 20
5.25694
  0
VERTEX
  8
0
 10
-7.3816
 20
5.25935
  0
VERTEX
  8
0
 10
-7.3825
 20
5.26167
  0
VERTEX
  8
0
 10
-7.38333
 20
5.26387
  0
VERTEX
  8
0
 10
-7.38415
 20
5.26598
  0
VERTEX
  8
0
 10
-7.38493
 20
5.26798
  0
VERTEX
  8
0
 10
-7.38569
 20
5.26989
  0
VERTEX
  8
0
 10
-7.3864
 20
5.27168
  0
VERTEX
  8
0
 10
-7.38708
 20
5.27339
  0
VERTEX
  8
0
 10
-7.38773
 20
5.27498
  0
SEQEND
  8
0
  0
POLYLINE
  8
0
 66
     1
  0
VERTEX
  8
0
 10
-7.3925
 20
5.29006
  0
VERTEX
  8
0
 10
-7.3925
 20
5.29006
  0
VERTEX
  8
0
 10
-7.39405
 20
5.29498
  0
VERTEX
  8
0
 10
-7.39556
 20
5.2999
  0
VERTEX
  8
0
 10
-7.39703
 20
5.3048
  0
VERTEX
  8
0
 10
-7.39845
 20
5.30969
  0
VERTEX
  8
0
 10
-7.39982
 20
5.31455
  0
VERTEX
  8
0
 10
-7.40114
 20
5.3194
  0
VERTEX
  8
0
 10
-7.40242
 20
5.32423
  0
VERTEX
  8
0
 10
-7.40366
 20
5.32906
  0
VERTEX
  8
0
 10
-7.40483
 20
5.33384
  0
VERTEX
  8
0
 10
-7.40597
 20
5.33863
  0
VERTEX
  8
0
 10
-7.40707
 20
5.34339
  0
VERTEX
  8
0
 10
-7.40813
 20
5.34815
  0
VERTEX
  8
0
 10
-7.40914
 20
5.35287
  0
VERTEX
  8
0
 10
-7.41011
 20
5.3576
  0
VERTEX
  8
0
 10
-7.41103
 20
5.36231
  0
VERTEX
  8
0
 10
-7.41192
 20
5.36702
  0
VERTEX
  8
0
 10
-7.4127
 20
5.3717
  0
VERTEX
  8
0
 10
-7.41343
 20
5.37638
  0
VERTEX
  8
0
 10
-7.41412
 20
5.38103
  0
VERTEX
  8
0
 10
-7.41477
 20
5.38569
  0
VERTEX
  8
0
 10
-7.41536
 20
5.39031
  0
VERTEX
  8
0
 10
-7.41591
 20
5.39495
  0
VERTEX
  8
0
 10
-7.41641
 20
5.39955
  0
VERTEX
  8
0
 10
-7.41686
 20
5.40417
  0
VERTEX
  8
0
 10
-7.41725
 20
5.40874
  0
VERTEX
  8
0
 10
-7.41759
 20
5.41333
  0
VERTEX
  8
0
 10
-7.41788
 20
5.41789
  0
VERTEX
  8
0
 10
-7.41813
 20
5.42246
  0
VERTEX
  8
0
 10
-7.41831
 20
5.42699
  0
VERTEX
  8
0
 10
-7.41845
 20
5.43154
  0
VERTEX
  8
0
 10
-7.41854
 20
5.43607
  0
VERTEX
  8
0
 10
-7.41857
 20
5.44061
  0
VERTEX
  8
0
 10
-7.41827
 20
5.45632
  0
VERTEX
  8
0
 10
-7.41741
 20
5.47169
  0
VERTEX
  8
0
 10
-7.41597
 20
5.48672
  0
VERTEX
  8
0
 10
-7.41397
 20
5.50142
  0
VERTEX
  8
0
 10
-7.41138
 20
5.51576
  0
VERTEX
  8
0
 10
-7.40822
 20
5.52976
  0
VERTEX
  8
0
 10
-7.40449
 20
5.54341
  0
VERTEX
  8
0
 10
-7.4002
 20
5.55673
  0
VERTEX
  8
0
 10
-7.39531
 20
5.56968
  0
VERTEX
  8
0
 10
-7.38986
 20
5.58229
  0
VERTEX
  8
0
 10
-7.38384
 20
5.59455
  0
VERTEX
  8
0
 10
-7.37726
 20
5.60647
  0
VERTEX
  8
0
 10
-7.37008
 20
5.61803
  0
VERTEX
  8
0
 10
-7.36235
 20
5.62925
  0
VERTEX
  8
0
 10
-7.35405
 20
5.64011
  0
VERTEX
  8
0
 10
-7.34519
 20
5.65064
  0
VERTEX
  8
0
 10
-7.33586
 20
5.6607
  0
VERTEX
  8
0
 10
-7.32626
 20
5.67012
  0
VERTEX
  8
0
 10
-7.31637
 20
5.67888
  0
VERTEX
  8
0
 10
-7.30621
 20
5.687
  0
VERTEX
  8
0
 10
-7.29576
 20
5.69445
  0
VERTEX
  8
0
 10
-7.28503
 20
5.70126
  0
VERTEX
  8
0
 10
-7.27401
 20
5.70742
  0
VERTEX
  8
0
 10
-7.26273
 20
5.71294
  0
VERTEX
  8
0
 10
-7.25114
 20
5.71779
  0
VERTEX
  8
0
 10
-7.23929
 20
5.722
  0
VERTEX
  8
0
 10
-7.22714
 20
5.72556
  0
VERTEX
  8
0
 10
-7.21472
 20
5.72848
  0
VERTEX
  8
0
 10
-7.202
 20
5.73074
  0
VERTEX
  8
0
 10
-7.18901
 20
5.73236
  0
VERTEX
  8
0
 10
-7.17572
 20
5.73334
  0
VERTEX
  8
0
 10
-7.16216
 20
5.73367
  0
VERTEX
  8
0
 10
-7.15028
 20
5.73338
  0
VERTEX
  8
0
 10
-7.13867
 20
5.73257
  0
VERTEX
  8
0
 10
-7.1273
 20
5.73119
  0
VERTEX
  8
0
 10
-7.11621
 20
5.72929
  0
VERTEX
  8
0
 10
-7.10535
 20
5.72682
  0
VERTEX
  8
0
 10
-7.09477
 20
5.72382
  0
VERTEX
  8
0
 10
-7.08444
 20
5.72027
  0
VERTEX
  8
0
 10
-7.07437
 20
5.71619
  0
VERTEX
  8
0
 10
-7.06455
 20
5.71154
  0
VERTEX
  8
0
 10
-7.05499
 20
5.70636
  0
VERTEX
  8
0
 10
-7.04568
 20
5.70063
  0
VERTEX
  8
0
 10
-7.03664
 20
5.69437
  0
VERTEX
  8
0
 10
-7.02785
 20
5.68755
  0
VERTEX
  8
0
 10
-7.01933
 20
5.6802
  0
VERTEX
  8
0
 10
-7.01105
 20
5.67231
  0
VERTEX
  8
0
 10
-7.00305
 20
5.66388
  0
VERTEX
  8
0
 10
-6.99537
 20
5.655
  0
VERTEX
  8
0
 10
-6.9882
 20
5.64588
  0
VERTEX
  8
0
 10
-6.98152
 20
5.63648
  0
VERTEX
  8
0
 10
-6.97534
 20
5.62684
  0
VERTEX
  8
0
 10
-6.96964
 20
5.61692
  0
VERTEX
  8
0
 10
-6.96445
 20
5.60674
  0
VERTEX
  8
0
 10
-6.95976
 20
5.59629
  0
VERTEX
  8
0
 10
-6.95557
 20
5.5856
  0
VERTEX
  8
0
 10
-6.95185
 20
5.57461
  0
VERTEX
  8
0
 10
-6.94864
 20
5.56337
  0
VERTEX
  8
0
 10
-6.94593
 20
5.55186
  0
VERTEX
  8
0
 10
-6.94371
 20
5.54009
  0
VERTEX
  8
0
 10
-6.94197
 20
5.52804
  0
VERTEX
  8
0
 10
-6.94074
 20
5.51573
  0
VERTEX
  8
0
 10
-6.94001
 20
5.50315
  0
VERTEX
  8
0
 10
-6.93977
 20
5.49032
  0
VERTEX
  8
0
 10
-6.94002
 20
5.47481
  0
VERTEX
  8
0
 10
-6.94083
 20
5.45966
  0
VERTEX
  8
0
 10
-6.94216
 20
5.44485
  0
VERTEX
  8
0
 10
-6.94405
 20
5.43042
  0
VERTEX
  8
0
 10
-6.94645
 20
5.41631
  0
VERTEX
  8
0
 10
-6.9494
 20
5.40257
  0
VERTEX
  8
0
 10
-6.95288
 20
5.38917
  0
VERTEX
  8
0
 10
-6.95691
 20
5.37615
  0
VERTEX
  8
0
 10
-6.96144
 20
5.36345
  0
VERTEX
  8
0
 10
-6.96654
 20
5.35112
  0
VERTEX
  8
0
 10
-6.97215
 20
5.33914
  0
VERTEX
  8
0
 10
-6.97833
 20
5.32753
  0
VERTEX
  8
0
 10
-6.98502
 20
5.31625
  0
VERTEX
  8
0
 10
-6.99225
 20
5.30536
  0
VERTEX
  8
0
 10
-7.00001
 20
5.2948
  0
VERTEX
  8
0
 10
-7.00832
 20
5.28463
  0
VERTEX
  8
0
 10
-7.01711
 20
5.27482
  0
VERTEX
  8
0
 10
-7.02627
 20
5.26557
  0
VERTEX
  8
0
 10
-7.03581
 20
5.25687
  0
VERTEX
  8
0
 10
-7.04572
 20
5.24874
  0
VERTEX
  8
0
 10
-7.05599
 20
5.24114
  0
VERTEX
  8
0
 10
-7.06664
 20
5.2341
  0
VERTEX
  8
0
 10
-7.07767
 20
5.22762
  0
VERTEX
  8
0
 10
-7.08908
 20
5.22169
  0
VERTEX
  8
0
 10
-7.10084
 20
5.2163
  0
VERTEX
  8
0
 10
-7.11298
 20
5.21147
  0
VERTEX
  8
0
 10
-7.12549
 20
5.2072
  0
VERTEX
  8
0
 10
-7.13839
 20
5.20348
  0
VERTEX
  8
0
 10
-7.15164
 20
5.2003
  0
VERTEX
  8
0
 10
-7.16527
 20
5.19768
  0
VERTEX
  8
0
 10
-7.17928
 20
5.19561
  0
VERTEX
  8
0
 10
-7.19506
 20
5.20583
  0
VERTEX
  8
0
 10
-7.19506
 20
5.20583
  0
VERTEX
  8
0
 10
-7.18585
 20
5.20784
  0
VERTEX
  8
0
 10
-7.1769
 20
5.21032
  0
VERTEX
  8
0
 10
-7.16817
 20
5.21326
  0
VERTEX
  8
0
 10
-7.15968
 20
5.21668
  0
VERTEX
  8
0
 10
-7.1514
 20
5.22054
  0
VERTEX
  8
0
 10
-7.14337
 20
5.22488
  0
VERTEX
  8
0
 10
-7.13555
 20
5.22968
  0
VERTEX
  8
0
 10
-7.12798
 20
5.23496
  0
VERTEX
  8
0
 10
-7.12061
 20
5.24067
  0
VERTEX
  8
0
 10
-7.11349
 20
5.24687
  0
VERTEX
  8
0
 10
-7.10658
 20
5.25352
  0
VERTEX
  8
0
 10
-7.09992
 20
5.26065
  0
VERTEX
  8
0
 10
-7.09347
 20
5.26822
  0
VERTEX
  8
0
 10
-7.08725
 20
5.27626
  0
VERTEX
  8
0
 10
-7.08125
 20
5.28476
  0
VERTEX
  8
0
 10
-7.07549
 20
5.29375
  0
VERTEX
  8
0
 10
-7.07
 20
5.30308
  0
VERTEX
  8
0
 10
-7.06488
 20
5.31267
  0
VERTEX
  8
0
 10
-7.0601
 20
5.32251
  0
VERTEX
  8
0
 10
-7.05569
 20
5.33262
  0
VERTEX
  8
0
 10
-7.05161
 20
5.34296
  0
VERTEX
  8
0
 10
-7.04791
 20
5.35356
  0
VERTEX
  8
0
 10
-7.04455
 20
5.36442
  0
VERTEX
  8
0
 10
-7.04156
 20
5.37553
  0
VERTEX
  8
0
 10
-7.03889
 20
5.38688
  0
VERTEX
  8
0
 10
-7.0366
 20
5.3985
  0
VERTEX
  8
0
 10
-7.03465
 20
5.41037
  0
VERTEX
  8
0
 10
-7.03307
 20
5.4225
  0
VERTEX
  8
0
 10
-7.03182
 20
5.43488
  0
VERTEX
  8
0
 10
-7.03095
 20
5.44753
  0
VERTEX
  8
0
 10
-7.03041
 20
5.46043
  0
VERTEX
  8
0
 10
-7.03025
 20
5.4736
  0
VERTEX
  8
0
 10
-7.0304
 20
5.4868
  0
VERTEX
  8
0
 10
-7.03088
 20
5.49972
  0
VERTEX
  8
0
 10
-7.03168
 20
5.51232
  0
VERTEX
  8
0
 10
-7.03281
 20
5.52464
  0
VERTEX
  8
0
 10
-7.03425
 20
5.53664
  0
VERTEX
  8
0
 10
-7.03603
 20
5.54834
  0
VERTEX
  8
0
 10
-7.03812
 20
5.55974
  0
VERTEX
  8
0
 10
-7.04054
 20
5.57085
  0
VERTEX
  8
0
 10
-7.04326
 20
5.58165
  0
VERTEX
  8
0
 10
-7.04632
 20
5.59215
  0
VERTEX
  8
0
 10
-7.0497
 20
5.60235
  0
VERTEX
  8
0
 10
-7.0534
 20
5.61225
  0
VERTEX
  8
0
 10
-7.05741
 20
5.62185
  0
VERTEX
  8
0
 10
-7.06176
 20
5.63116
  0
VERTEX
  8
0
 10
-7.06643
 20
5.64017
  0
VERTEX
  8
0
 10
-7.07143
 20
5.6489
  0
VERTEX
  8
0
 10
-7.07663
 20
5.65719
  0
VERTEX
  8
0
 10
-7.08203
 20
5.66496
  0
VERTEX
  8
0
 10
-7.08758
 20
5.67219
  0
VERTEX
  8
0
 10
-7.09333
 20
5.6789
  0
VERTEX
  8
0
 10
-7.09923
 20
5.68507
  0
VERTEX
  8
0
 10
-7.10532
 20
5.69071
  0
VERTEX
  8
0
 10
-7.11156
 20
5.69581
  0
VERTEX
  8
0
 10
-7.11799
 20
5.70038
  0
VERTEX
  8
0
 10
-7.12456
 20
5.7044
  0
VERTEX
  8
0
 10
-7.13133
 20
5.7079
  0
VERTEX
  8
0
 10
-7.13824
 20
5.71086
  0
VERTEX
  8
0
 10
-7.14534
 20
5.71329
  0
VERTEX
  8
0
 10
-7.15258
 20
5.71518
  0
VERTEX
  8
0
 10
-7.16001
 20
5.71653
  0
VERTEX
  8
0
 10
-7.1676
 20
5.71734
  0
VERTEX
  8
0
 10
-7.17537
 20
5.71761
  0
VERTEX
  8
0
 10
-7.18256
 20
5.71737
  0
VERTEX
  8
0
 10
-7.18961
 20
5.71668
  0
VERTEX
  8
0
 10
-7.1965
 20
5.71553
  0
VERTEX
  8
0
 10
-7.20325
 20
5.71393
  0
VERTEX
  8
0
 10
-7.20982
 20
5.71186
  0
VERTEX
  8
0
 10
-7.21625
 20
5.70935
  0
VERTEX
  8
0
 10
-7.22251
 20
5.70637
  0
VERTEX
  8
0
 10
-7.22863
 20
5.70295
  0
VERTEX
  8
0
 10
-7.23457
 20
5.69904
  0
VERTEX
  8
0
 10
-7.24037
 20
5.69469
  0
VERTEX
  8
0
 10
-7.246
 20
5.68988
  0
VERTEX
  8
0
 10
-7.25148
 20
5.68462
  0
VERTEX
  8
0
 10
-7.25679
 20
5.67889
  0
VERTEX
  8
0
 10
-7.26196
 20
5.67272
  0
VERTEX
  8
0
 10
-7.26696
 20
5.66608
  0
VERTEX
  8
0
 10
-7.27181
 20
5.65899
  0
VERTEX
  8
0
 10
-7.27641
 20
5.65156
  0
VERTEX
  8
0
 10
-7.28073
 20
5.64388
  0
VERTEX
  8
0
 10
-7.28475
 20
5.63594
  0
VERTEX
  8
0
 10
-7.28847
 20
5.62777
  0
VERTEX
  8
0
 10
-7.29189
 20
5.61931
  0
VERTEX
  8
0
 10
-7.29503
 20
5.61061
  0
VERTEX
  8
0
 10
-7.29785
 20
5.60165
  0
VERTEX
  8
0
 10
-7.3004
 20
5.59244
  0
VERTEX
  8
0
 10
-7.30262
 20
5.58295
  0
VERTEX
  8
0
 10
-7.30457
 20
5.57323
  0
VERTEX
  8
0
 10
-7.30622
 20
5.56324
  0
VERTEX
  8
0
 10
-7.30757
 20
5.55301
  0
VERTEX
  8
0
 10
-7.30862
 20
5.54251
  0
VERTEX
  8
0
 10
-7.30937
 20
5.53177
  0
VERTEX
  8
0
 10
-7.30982
 20
5.52076
  0
VERTEX
  8
0
 10
-7.30997
 20
5.50953
  0
VERTEX
  8
0
 10
-7.30991
 20
5.5037
  0
VERTEX
  8
0
 10
-7.30974
 20
5.49776
  0
VERTEX
  8
0
 10
-7.30947
 20
5.4917
  0
VERTEX
  8
0
 10
-7.3091
 20
5.48552
  0
VERTEX
  8
0
 10
-7.30861
 20
5.47922
  0
VERTEX
  8
0
 10
-7.30801
 20
5.4728
  0
VERTEX
  8
0
 10
-7.30731
 20
5.46626
  0
VERTEX
  8
0
 10
-7.30651
 20
5.45962
  0
VERTEX
  8
0
 10
-7.30558
 20
5.45284
  0
VERTEX
  8
0
 10
-7.30454
 20
5.44597
  0
VERTEX
  8
0
 10
-7.3034
 20
5.43898
  0
VERTEX
  8
0
 10
-7.30216
 20
5.43189
  0
VERTEX
  8
0
 10
-7.3008
 20
5.42467
  0
VERTEX
  8
0
 10
-7.29933
 20
5.41735
  0
VERTEX
  8
0
 10
-7.29775
 20
5.40993
  0
VERTEX
  8
0
 10
-7.29607
 20
5.4024
  0
VERTEX
  8
0
 10
-7.29421
 20
5.3946
  0
VERTEX
  8
0
 10
-7.29221
 20
5.38655
  0
VERTEX
  8
0
 10
-7.29006
 20
5.37822
  0
VERTEX
  8
0
 10
-7.28777
 20
5.36963
  0
VERTEX
  8
0
 10
-7.28531
 20
5.36076
  0
VERTEX
  8
0
 10
-7.28271
 20
5.35163
  0
VERTEX
  8
0
 10
-7.27996
 20
5.34222
  0
VERTEX
  8
0
 10
-7.27707
 20
5.33256
  0
VERTEX
  8
0
 10
-7.274
 20
5.32261
  0
VERTEX
  8
0
 10
-7.2708
 20
5.3124
  0
VERTEX
  8
0
 10
-7.26745
 20
5.30192
  0
VERTEX
  8
0
 10
-7.26396
 20
5.29119
  0
VERTEX
  8
0
 10
-7.26031
 20
5.28017
  0
VERTEX
  8
0
 10
-7.25652
 20
5.2689
  0
VERTEX
  8
0
 10
-7.25257
 20
5.25736
  0
VERTEX
  8
0
 10
-7.2485
 20
5.24556
  0
VERTEX
  8
0
 10
-7.24795
 20
5.24398
  0
VERTEX
  8
0
 10
-7.2474
 20
5.24235
  0
VERTEX
  8
0
 10
-7.24681
 20
5.24064
  0
VERTEX
  8
0
 10
-7.2462
 20
5.23887
  0
VERTEX
  8
0
 10
-7.24555
 20
5.23701
  0
VERTEX
  8
0
 10
-7.24488
 20
5.23509
  0
VERTEX
  8
0
 10
-7.24417
 20
5.23308
  0
VERTEX
  8
0
 10
-7.24345
 20
5.23101
  0
VERTEX
  8
0
 10
-7.24268
 20
5.22884
  0
VERTEX
  8
0
 10
-7.24188
 20
5.22661
  0
VERTEX
  8
0
 10
-7.24105
 20
5.2243
  0
VERTEX
  8
0
 10
-7.2402
 20
5.22192
  0
VERTEX
  8
0
 10
-7.23929
 20
5.21944
  0
VERTEX
  8
0
 10
-7.23837
 20
5.2169
  0
VERTEX
  8
0
 10
-7.2374
 20
5.21427
  0
VERTEX
  8
0
 10
-7.23641
 20
5.21158
  0
VERTEX
  8
0
 10
-7.23009
 20
5.19363
  0
VERTEX
  8
0
 10
-7.2242
 20
5.17619
  0
VERTEX
  8
0
 10
-7.21869
 20
5.15926
  0
VERTEX
  8
0
 10
-7.21361
 20
5.14286
  0
VERTEX
  8
0
 10
-7.20891
 20
5.12694
  0
VERTEX
  8
0
 10
-7.20464
 20
5.11154
  0
VERTEX
  8
0
 10
-7.20076
 20
5.09664
  0
VERTEX
  8
0
 10
-7.19731
 20
5.08225
  0
VERTEX
  8
0
 10
-7.19424
 20
5.06835
  0
VERTEX
  8
0
 10
-7.1916
 20
5.05496
  0
VERTEX
  8
0
 10
-7.18935
 20
5.04207
  0
VERTEX
  8
0
 10
-7.18752
 20
5.02969
  0
VERTEX
  8
0
 10
-7.18608
 20
5.0178
  0
VERTEX
  8
0
 10
-7.18508
 20
5.00642
  0
VERTEX
  8
0
 10
-7.18446
 20
4.99553
  0
VERTEX
  8
0
 10
-7.18427
 20
4.98516
  0
VERTEX
  8
0
 10
-7.18457
 20
4.96864
  0
VERTEX
  8
0
 10
-7.18551
 20
4.9525
  0
VERTEX
  8
0
 10
-7.18708
 20
4.93672
  0
VERTEX
  8
0
 10
-7.18928
 20
4.9213
  0
VERTEX
  8
0
 10
-7.19209
 20
4.90624
  0
VERTEX
  8
0
 10
-7.19553
 20
4.89154
  0
VERTEX
  8
0
 10
-7.1996
 20
4.87721
  0
VERTEX
  8
0
 10
-7.2043
 20
4.86326
  0
VERTEX
  8
0
 10
-7.2096
 20
4.84966
  0
VERTEX
  8
0
 10
-7.21555
 20
4.83643
  0
VERTEX
  8
0
 10
-7.22211
 20
4.82356
  0
VERTEX
  8
0
 10
-7.22931
 20
4.81108
  0
VERTEX
  8
0
 10
-7.23711
 20
4.79895
  0
VERTEX
  8
0
 10
-7.24555
 20
4.7872
  0
VERTEX
  8
0
 10
-7.25461
 20
4.77582
  0
VERTEX
  8
0
 10
-7.2643
 20
4.76482
  0
VERTEX
  8
0
 10
-7.27444
 20
4.75432
  0
VERTEX
  8
0
 10
-7.28497
 20
4.74451
  0
VERTEX
  8
0
 10
-7.29585
 20
4.73536
  0
VERTEX
  8
0
 10
-7.3071
 20
4.7269
  0
VERTEX
  8
0
 10
-7.31868
 20
4.7191
  0
VERTEX
  8
0
 10
-7.33063
 20
4.71199
  0
VERTEX
  8
0
 10
-7.34293
 20
4.70555
  0
VERTEX
  8
0
 10
-7.3556
 20
4.6998
  0
VERTEX
  8
0
 10
-7.36859
 20
4.6947
  0
VERTEX
  8
0
 10
-7.38196
 20
4.6903
  0
VERTEX
  8
0
 10
-7.39567
 20
4.68657
  0
VERTEX
  8
0
 10
-7.40974
 20
4.68352
  0
VERTEX
  8
0
 10
-7.42414
 20
4.68114
  0
VERTEX
  8
0
 10
-7.43892
 20
4.67945
  0
VERTEX
  8
0
 10
-7.45403
 20
4.67843
  0
VERTEX
  8
0
 10
-7.46951
 20
4.6781
  0
VERTEX
  8
0
 10
-7.4826
 20
4.67838
  0
VERTEX
  8
0
 10
-7.49539
 20
4.67928
  0
VERTEX
  8
0
 10
-7.50785
 20
4.68078
  0
VERTEX
  8
0
 10
-7.51999
 20
4.68288
  0
VERTEX
  8
0
 10
-7.53179
 20
4.68555
  0
VERTEX
  8
0
 10
-7.54327
 20
4.68885
  0
VERTEX
  8
0
 10
-7.55441
 20
4.69275
  0
VERTEX
  8
0
 10
-7.56524
 20
4.69725
  0
VERTEX
  8
0
 10
-7.57572
 20
4.70232
  0
VERTEX
  8
0
 10
-7.58587
 20
4.70802
  0
VERTEX
  8
0
 10
-7.59569
 20
4.71432
  0
VERTEX
  8
0
 10
-7.60518
 20
4.72122
  0
VERTEX
  8
0
 10
-7.61432
 20
4.72872
  0
VERTEX
  8
0
 10
-7.62314
 20
4.73682
  0
VERTEX
  8
0
 10
-7.63162
 20
4.74552
  0
VERTEX
  8
0
 10
-7.63976
 20
4.75484
  0
VERTEX
  8
0
 10
-7.64751
 20
4.76455
  0
VERTEX
  8
0
 10
-7.65476
 20
4.77468
  0
VERTEX
  8
0
 10
-7.66151
 20
4.78519
  0
VERTEX
  8
0
 10
-7.66777
 20
4.79611
  0
VERTEX
  8
0
 10
-7.67351
 20
4.80741
  0
VERTEX
  8
0
 10
-7.67876
 20
4.81912
  0
VERTEX
  8
0
 10
-7.6835
 20
4.83121
  0
VERTEX
  8
0
 10
-7.68776
 20
4.84371
  0
VERTEX
  8
0
 10
-7.69149
 20
4.85657
  0
VERTEX
  8
0
 10
-7.69474
 20
4.86984
  0
VERTEX
  8
0
 10
-7.69748
 20
4.8835
  0
VERTEX
  8
0
 10
-7.69974
 20
4.89755
  0
VERTEX
  8
0
 10
-7.70147
 20
4.91197
  0
VERTEX
  8
0
 10
-7.70272
 20
4.9268
  0
VERTEX
  8
0
 10
-7.70347
 20
4.942
  0
VERTEX
  8
0
 10
-7.70373
 20
4.95759
  0
VERTEX
  8
0
 10
-7.70341
 20
4.97471
  0
VERTEX
  8
0
 10
-7.70251
 20
4.99141
  0
VERTEX
  8
0
 10
-7.70098
 20
5.00767
  0
VERTEX
  8
0
 10
-7.69888
 20
5.02351
  0
VERTEX
  8
0
 10
-7.69615
 20
5.03888
  0
VERTEX
  8
0
 10
-7.69283
 20
5.05384
  0
VERTEX
  8
0
 10
-7.6889
 20
5.06835
  0
VERTEX
  8
0
 10
-7.68438
 20
5.08244
  0
VERTEX
  8
0
 10
-7.67923
 20
5.09607
  0
VERTEX
  8
0
 10
-7.6735
 20
5.10929
  0
VERTEX
  8
0
 10
-7.66716
 20
5.12205
  0
VERTEX
  8
0
 10
-7.66023
 20
5.1344
  0
VERTEX
  8
0
 10
-7.65267
 20
5.14629
  0
VERTEX
  8
0
 10
-7.64454
 20
5.15778
  0
VERTEX
  8
0
 10
-7.63579
 20
5.16882
  0
VERTEX
  8
0
 10
-7.62646
 20
5.17945
  0
VERTEX
  8
0
 10
-7.61645
 20
5.18956
  0
VERTEX
  8
0
 10
-7.60585
 20
5.19926
  0
VERTEX
  8
0
 10
-7.59463
 20
5.20853
  0
VERTEX
  8
0
 10
-7.5828
 20
5.21739
  0
VERTEX
  8
0
 10
-7.57033
 20
5.2258
  0
VERTEX
  8
0
 10
-7.55727
 20
5.2338
  0
VERTEX
  8
0
 10
-7.54357
 20
5.24136
  0
VERTEX
  8
0
 10
-7.52928
 20
5.24851
  0
VERTEX
  8
0
 10
-7.51434
 20
5.2552
  0
VERTEX
  8
0
 10
-7.4988
 20
5.26148
  0
VERTEX
  8
0
 10
-7.48263
 20
5.26731
  0
VERTEX
  8
0
 10
-7.46585
 20
5.27273
  0
VERTEX
  8
0
 10
-7.44843
 20
5.2777
  0
VERTEX
  8
0
 10
-7.43041
 20
5.28226
  0
VERTEX
  8
0
 10
-7.41176
 20
5.28637
  0
SEQEND
  8
0
  0
POLYLINE
  8
0
 66
     1
  0
VERTEX
  8
0
 10
-8.27586
 20
3.68807
  0
VERTEX
  8
0
 10
-7.96187
 20
4.33107
  0
VERTEX
  8
0
 10
-7.96187
 20
4.33107
  0
VERTEX
  8
0
 10
-7.96116
 20
4.33252
  0
VERTEX
  8
0
 10
-7.96027
 20
4.33431
  0
VERTEX
  8
0
 10
-7.95917
 20
4.33643
  0
VERTEX
  8
0
 10
-7.9579
 20
4.3389
  0
VERTEX
  8
0
 10
-7.95641
 20
4.34167
  0
VERTEX
  8
0
 10
-7.95474
 20
4.3448
  0
VERTEX
  8
0
 10
-7.95286
 20
4.34824
  0
VERTEX
  8
0
 10
-7.95081
 20
4.35204
  0
VERTEX
  8
0
 10
-7.94853
 20
4.35614
  0
VERTEX
  8
0
 10
-7.94607
 20
4.36059
  0
VERTEX
  8
0
 10
-7.9434
 20
4.36537
  0
VERTEX
  8
0
 10
-7.94054
 20
4.3705
  0
VERTEX
  8
0
 10
-7.93746
 20
4.37594
  0
VERTEX
  8
0
 10
-7.9342
 20
4.38174
  0
VERTEX
  8
0
 10
-7.93073
 20
4.38787
  0
VERTEX
  8
0
 10
-7.91637
 20
4.41215
  0
VERTEX
  8
0
 10
-7.91637
 20
4.41215
  0
VERTEX
  8
0
 10
-7.92512
 20
4.40623
  0
VERTEX
  8
0
 10
-7.93403
 20
4.40037
  0
VERTEX
  8
0
 10
-7.94307
 20
4.39453
  0
VERTEX
  8
0
 10
-7.95226
 20
4.38875
  0
VERTEX
  8
0
 10
-7.96158
 20
4.38298
  0
VERTEX
  8
0
 10
-7.97105
 20
4.37726
  0
VERTEX
  8
0
 10
-7.98065
 20
4.37156
  0
VERTEX
  8
0
 10
-7.9904
 20
4.36591
  0
VERTEX
  8
0
 10
-8.00027
 20
4.36026
  0
VERTEX
  8
0
 10
-8.01029
 20
4.35466
  0
VERTEX
  8
0
 10
-8.02045
 20
4.34909
  0
VERTEX
  8
0
 10
-8.03075
 20
4.34355
  0
VERTEX
  8
0
 10
-8.04118
 20
4.33802
  0
VERTEX
  8
0
 10
-8.05175
 20
4.33253
  0
VERTEX
  8
0
 10
-8.06246
 20
4.32706
  0
VERTEX
  8
0
 10
-8.07332
 20
4.32163
  0
VERTEX
  8
0
 10
-8.08426
 20
4.31622
  0
VERTEX
  8
0
 10
-8.09527
 20
4.31091
  0
VERTEX
  8
0
 10
-8.10633
 20
4.30566
  0
VERTEX
  8
0
 10
-8.11746
 20
4.30051
  0
VERTEX
  8
0
 10
-8.12862
 20
4.29543
  0
VERTEX
  8
0
 10
-8.13985
 20
4.29043
  0
VERTEX
  8
0
 10
-8.15113
 20
4.2855
  0
VERTEX
  8
0
 10
-8.16247
 20
4.28065
  0
VERTEX
  8
0
 10
-8.17384
 20
4.27587
  0
VERTEX
  8
0
 10
-8.18528
 20
4.27117
  0
VERTEX
  8
0
 10
-8.19677
 20
4.26654
  0
VERTEX
  8
0
 10
-8.20833
 20
4.262
  0
VERTEX
  8
0
 10
-8.21991
 20
4.25752
  0
VERTEX
  8
0
 10
-8.23157
 20
4.25312
  0
VERTEX
  8
0
 10
-8.24327
 20
4.2488
  0
VERTEX
  8
0
 10
-8.25911
 20
4.26389
  0
VERTEX
  8
0
 10
-8.25911
 20
4.26389
  0
VERTEX
  8
0
 10
-8.24106
 20
4.26951
  0
VERTEX
  8
0
 10
-8.22311
 20
4.27545
  0
VERTEX
  8
0
 10
-8.20524
 20
4.28166
  0
VERTEX
  8
0
 10
-8.18747
 20
4.28818
  0
VERTEX
  8
0
 10
-8.16977
 20
4.29496
  0
VERTEX
  8
0
 10
-8.15217
 20
4.30206
  0
VERTEX
  8
0
 10
-8.13466
 20
4.30942
  0
VERTEX
  8
0
 10
-8.11725
 20
4.3171
  0
VERTEX
  8
0
 10
-8.0999
 20
4.32504
  0
VERTEX
  8
0
 10
-8.08265
 20
4.33329
  0
VERTEX
  8
0
 10
-8.06548
 20
4.34181
  0
VERTEX
  8
0
 10
-8.04842
 20
4.35064
  0
VERTEX
  8
0
 10
-8.03143
 20
4.35974
  0
VERTEX
  8
0
 10
-8.01454
 20
4.36915
  0
VERTEX
  8
0
 10
-7.99773
 20
4.37883
  0
VERTEX
  8
0
 10
-7.98103
 20
4.38882
  0
VERTEX
  8
0
 10
-7.96434
 20
4.39916
  0
VERTEX
  8
0
 10
-7.94772
 20
4.40981
  0
VERTEX
  8
0
 10
-7.93116
 20
4.42077
  0
VERTEX
  8
0
 10
-7.91466
 20
4.43205
  0
VERTEX
  8
0
 10
-7.8982
 20
4.44363
  0
VERTEX
  8
0
 10
-7.88182
 20
4.45552
  0
VERTEX
  8
0
 10
-7.86549
 20
4.46772
  0
VERTEX
  8
0
 10
-7.84923
 20
4.48023
  0
VERTEX
  8
0
 10
-7.833
 20
4.49304
  0
VERTEX
  8
0
 10
-7.81683
 20
4.50616
  0
VERTEX
  8
0
 10
-7.80072
 20
4.51959
  0
VERTEX
  8
0
 10
-7.78467
 20
4.53333
  0
VERTEX
  8
0
 10
-7.76865
 20
4.54737
  0
VERTEX
  8
0
 10
-7.75272
 20
4.56172
  0
VERTEX
  8
0
 10
-7.73682
 20
4.57638
  0
VERTEX
  8
0
 10
-7.70822
 20
4.57963
  0
VERTEX
  8
0
 10
-8.12383
 20
3.71249
  0
VERTEX
  8
0
 10
-8.00141
 20
3.72432
  0
VERTEX
  8
0
 10
-8.00598
 20
3.70826
  0
VERTEX
  8
0
 10
-8.00598
 20
3.70826
  0
VERTEX
  8
0
 10
-8.01186
 20
3.70785
  0
VERTEX
  8
0
 10
-8.01783
 20
3.70745
  0
VERTEX
  8
0
 10
-8.02386
 20
3.70703
  0
VERTEX
  8
0
 10
-8.02997
 20
3.70661
  0
VERTEX
  8
0
 10
-8.03614
 20
3.70616
  0
VERTEX
  8
0
 10
-8.04238
 20
3.70571
  0
VERTEX
  8
0
 10
-8.04869
 20
3.70524
  0
VERTEX
  8
0
 10
-8.05508
 20
3.70479
  0
VERTEX
  8
0
 10
-8.06152
 20
3.7043
  0
VERTEX
  8
0
 10
-8.06803
 20
3.70382
  0
VERTEX
  8
0
 10
-8.07461
 20
3.70331
  0
VERTEX
  8
0
 10
-8.08127
 20
3.70283
  0
VERTEX
  8
0
 10
-8.08799
 20
3.70231
  0
VERTEX
  8
0
 10
-8.09477
 20
3.7018
  0
VERTEX
  8
0
 10
-8.10161
 20
3.70128
  0
VERTEX
  8
0
 10
-8.10854
 20
3.70077
  0
VERTEX
  8
0
 10
-8.1157
 20
3.70019
  0
VERTEX
  8
0
 10
-8.1233
 20
3.69961
  0
VERTEX
  8
0
 10
-8.13134
 20
3.69899
  0
VERTEX
  8
0
 10
-8.13983
 20
3.69835
  0
VERTEX
  8
0
 10
-8.14874
 20
3.69767
  0
VERTEX
  8
0
 10
-8.1581
 20
3.69697
  0
VERTEX
  8
0
 10
-8.1679
 20
3.69623
  0
VERTEX
  8
0
 10
-8.17814
 20
3.69547
  0
VERTEX
  8
0
 10
-8.18881
 20
3.69465
  0
VERTEX
  8
0
 10
-8.19992
 20
3.69382
  0
VERTEX
  8
0
 10
-8.21147
 20
3.69295
  0
VERTEX
  8
0
 10
-8.22348
 20
3.69206
  0
VERTEX
  8
0
 10
-8.23591
 20
3.69111
  0
VERTEX
  8
0
 10
-8.24879
 20
3.69013
  0
VERTEX
  8
0
 10
-8.2621
 20
3.68911
  0
SEQEND
  8
0
  0
POLYLINE
  8
0
 66
     1
  0
VERTEX
  8
0
 10
-7.21594
 20
4.55489
  0
VERTEX
  8
0
 10
-7.21594
 20
4.55489
  0
VERTEX
  8
0
 10
-7.2225
 20
4.55465
  0
VERTEX
  8
0
 10
-7.22914
 20
4.55394
  0
VERTEX
  8
0
 10
-7.23585
 20
4.55276
  0
VERTEX
  8
0
 10
-7.24266
 20
4.55112
  0
VERTEX
  8
0
 10
-7.24952
 20
4.549
  0
VERTEX
  8
0
 10
-7.25647
 20
4.54642
  0
VERTEX
  8
0
 10
-7.26349
 20
4.54336
  0
VERTEX
  8
0
 10
-7.2706
 20
4.53985
  0
VERTEX
  8
0
 10
-7.27776
 20
4.53585
  0
VERTEX
  8
0
 10
-7.285
 20
4.53139
  0
VERTEX
  8
0
 10
-7.29232
 20
4.52647
  0
VERTEX
  8
0
 10
-7.29972
 20
4.52108
  0
VERTEX
  8
0
 10
-7.30717
 20
4.51522
  0
VERTEX
  8
0
 10
-7.3147
 20
4.5089
  0
VERTEX
  8
0
 10
-7.32231
 20
4.50211
  0
VERTEX
  8
0
 10
-7.32999
 20
4.49486
  0
VERTEX
  8
0
 10
-7.33768
 20
4.48713
  0
VERTEX
  8
0
 10
-7.34532
 20
4.4791
  0
VERTEX
  8
0
 10
-7.35286
 20
4.47074
  0
VERTEX
  8
0
 10
-7.36035
 20
4.46208
  0
VERTEX
  8
0
 10
-7.36773
 20
4.45307
  0
VERTEX
  8
0
 10
-7.37505
 20
4.44376
  0
VERTEX
  8
0
 10
-7.38228
 20
4.43412
  0
VERTEX
  8
0
 10
-7.38944
 20
4.42417
  0
VERTEX
  8
0
 10
-7.39649
 20
4.41387
  0
VERTEX
  8
0
 10
-7.40347
 20
4.40327
  0
VERTEX
  8
0
 10
-7.41036
 20
4.39233
  0
VERTEX
  8
0
 10
-7.41719
 20
4.38108
  0
VERTEX
  8
0
 10
-7.42391
 20
4.36949
  0
VERTEX
  8
0
 10
-7.43056
 20
4.35759
  0
VERTEX
  8
0
 10
-7.43711
 20
4.34536
  0
VERTEX
  8
0
 10
-7.4436
 20
4.33281
  0
VERTEX
  8
0
 10
-7.44936
 20
4.32096
  0
VERTEX
  8
0
 10
-7.45497
 20
4.30906
  0
VERTEX
  8
0
 10
-7.4604
 20
4.29709
  0
VERTEX
  8
0
 10
-7.46567
 20
4.28506
  0
VERTEX
  8
0
 10
-7.47076
 20
4.27294
  0
VERTEX
  8
0
 10
-7.47568
 20
4.26078
  0
VERTEX
  8
0
 10
-7.48044
 20
4.24854
  0
VERTEX
  8
0
 10
-7.48503
 20
4.23626
  0
VERTEX
  8
0
 10
-7.48943
 20
4.22387
  0
VERTEX
  8
0
 10
-7.49367
 20
4.21145
  0
VERTEX
  8
0
 10
-7.49774
 20
4.19894
  0
VERTEX
  8
0
 10
-7.50164
 20
4.18639
  0
VERTEX
  8
0
 10
-7.50536
 20
4.17375
  0
VERTEX
  8
0
 10
-7.50891
 20
4.16106
  0
VERTEX
  8
0
 10
-7.5123
 20
4.14829
  0
VERTEX
  8
0
 10
-7.51552
 20
4.13548
  0
VERTEX
  8
0
 10
-7.51855
 20
4.12255
  0
VERTEX
  8
0
 10
-7.5214
 20
4.10969
  0
VERTEX
  8
0
 10
-7.52404
 20
4.09688
  0
VERTEX
  8
0
 10
-7.52651
 20
4.08413
  0
VERTEX
  8
0
 10
-7.52876
 20
4.07141
  0
VERTEX
  8
0
 10
-7.53083
 20
4.05876
  0
VERTEX
  8
0
 10
-7.5327
 20
4.04614
  0
VERTEX
  8
0
 10
-7.5344
 20
4.03359
  0
VERTEX
  8
0
 10
-7.53587
 20
4.02106
  0
VERTEX
  8
0
 10
-7.53716
 20
4.00858
  0
VERTEX
  8
0
 10
-7.53824
 20
3.99614
  0
VERTEX
  8
0
 10
-7.53914
 20
3.98376
  0
VERTEX
  8
0
 10
-7.53982
 20
3.97139
  0
VERTEX
  8
0
 10
-7.54032
 20
3.95908
  0
VERTEX
  8
0
 10
-7.54062
 20
3.9468
  0
VERTEX
  8
0
 10
-7.54073
 20
3.93457
  0
VERTEX
  8
0
 10
-7.54061
 20
3.9215
  0
VERTEX
  8
0
 10
-7.54025
 20
3.90886
  0
VERTEX
  8
0
 10
-7.53965
 20
3.89662
  0
VERTEX
  8
0
 10
-7.53882
 20
3.8848
  0
VERTEX
  8
0
 10
-7.53774
 20
3.87337
  0
VERTEX
  8
0
 10
-7.53645
 20
3.86236
  0
VERTEX
  8
0
 10
-7.53491
 20
3.85174
  0
VERTEX
  8
0
 10
-7.53314
 20
3.84154
  0
VERTEX
  8
0
 10
-7.53111
 20
3.83173
  0
VERTEX
  8
0
 10
-7.52886
 20
3.82234
  0
VERTEX
  8
0
 10
-7.52637
 20
3.81335
  0
VERTEX
  8
0
 10
-7.52364
 20
3.80479
  0
VERTEX
  8
0
 10
-7.52067
 20
3.79661
  0
VERTEX
  8
0
 10
-7.51746
 20
3.78886
  0
VERTEX
  8
0
 10
-7.51401
 20
3.78151
  0
VERTEX
  8
0
 10
-7.51034
 20
3.77458
  0
VERTEX
  8
0
 10
-7.50639
 20
3.76804
  0
VERTEX
  8
0
 10
-7.50222
 20
3.76194
  0
VERTEX
  8
0
 10
-7.49783
 20
3.75627
  0
VERTEX
  8
0
 10
-7.49322
 20
3.75102
  0
VERTEX
  8
0
 10
-7.48837
 20
3.74619
  0
VERTEX
  8
0
 10
-7.4833
 20
3.74178
  0
VERTEX
  8
0
 10
-7.47801
 20
3.73779
  0
VERTEX
  8
0
 10
-7.4725
 20
3.73424
  0
VERTEX
  8
0
 10
-7.46674
 20
3.73109
  0
VERTEX
  8
0
 10
-7.46077
 20
3.72836
  0
VERTEX
  8
0
 10
-7.45458
 20
3.72605
  0
VERTEX
  8
0
 10
-7.44817
 20
3.72419
  0
VERTEX
  8
0
 10
-7.44153
 20
3.72272
  0
VERTEX
  8
0
 10
-7.43467
 20
3.72167
  0
VERTEX
  8
0
 10
-7.42758
 20
3.72104
  0
VERTEX
  8
0
 10
-7.42029
 20
3.72085
  0
VERTEX
  8
0
 10
-7.41336
 20
3.72103
  0
VERTEX
  8
0
 10
-7.40646
 20
3.7216
  0
VERTEX
  8
0
 10
-7.39955
 20
3.72253
  0
VERTEX
  8
0
 10
-7.39265
 20
3.72385
  0
VERTEX
  8
0
 10
-7.38572
 20
3.72554
  0
VERTEX
  8
0
 10
-7.37882
 20
3.72762
  0
VERTEX
  8
0
 10
-7.37191
 20
3.73007
  0
VERTEX
  8
0
 10
-7.36501
 20
3.7329
  0
VERTEX
  8
0
 10
-7.35808
 20
3.7361
  0
VERTEX
  8
0
 10
-7.35117
 20
3.73968
  0
VERTEX
  8
0
 10
-7.34424
 20
3.74364
  0
VERTEX
  8
0
 10
-7.33734
 20
3.74799
  0
VERTEX
  8
0
 10
-7.33041
 20
3.7527
  0
VERTEX
  8
0
 10
-7.32348
 20
3.75781
  0
VERTEX
  8
0
 10
-7.31655
 20
3.76329
  0
VERTEX
  8
0
 10
-7.30962
 20
3.76915
  0
VERTEX
  8
0
 10
-7.3027
 20
3.77538
  0
VERTEX
  8
0
 10
-7.29585
 20
3.78195
  0
VERTEX
  8
0
 10
-7.28904
 20
3.78884
  0
VERTEX
  8
0
 10
-7.28231
 20
3.79607
  0
VERTEX
  8
0
 10
-7.2756
 20
3.80361
  0
VERTEX
  8
0
 10
-7.26897
 20
3.81149
  0
VERTEX
  8
0
 10
-7.2624
 20
3.81969
  0
VERTEX
  8
0
 10
-7.25589
 20
3.82823
  0
VERTEX
  8
0
 10
-7.24941
 20
3.83707
  0
VERTEX
  8
0
 10
-7.24302
 20
3.84627
  0
VERTEX
  8
0
 10
-7.23667
 20
3.85579
  0
VERTEX
  8
0
 10
-7.2304
 20
3.86565
  0
VERTEX
  8
0
 10
-7.22418
 20
3.87583
  0
VERTEX
  8
0
 10
-7.21803
 20
3.88635
  0
VERTEX
  8
0
 10
-7.21194
 20
3.8972
  0
VERTEX
  8
0
 10
-7.20593
 20
3.90841
  0
VERTEX
  8
0
 10
-7.1997
 20
3.92038
  0
VERTEX
  8
0
 10
-7.19367
 20
3.93253
  0
VERTEX
  8
0
 10
-7.18779
 20
3.94484
  0
VERTEX
  8
0
 10
-7.1821
 20
3.95732
  0
VERTEX
  8
0
 10
-7.17655
 20
3.96994
  0
VERTEX
  8
0
 10
-7.1712
 20
3.98274
  0
VERTEX
  8
0
 10
-7.16599
 20
3.99568
  0
VERTEX
  8
0
 10
-7.16098
 20
4.00881
  0
VERTEX
  8
0
 10
-7.15611
 20
4.02206
  0
VERTEX
  8
0
 10
-7.15143
 20
4.03549
  0
VERTEX
  8
0
 10
-7.1469
 20
4.04906
  0
VERTEX
  8
0
 10
-7.14256
 20
4.06281
  0
VERTEX
  8
0
 10
-7.13836
 20
4.07669
  0
VERTEX
  8
0
 10
-7.13436
 20
4.09075
  0
VERTEX
  8
0
 10
-7.13051
 20
4.10495
  0
VERTEX
  8
0
 10
-7.12685
 20
4.11931
  0
VERTEX
  8
0
 10
-7.12335
 20
4.13374
  0
VERTEX
  8
0
 10
-7.12009
 20
4.14809
  0
VERTEX
  8
0
 10
-7.11704
 20
4.16234
  0
VERTEX
  8
0
 10
-7.11424
 20
4.17651
  0
VERTEX
  8
0
 10
-7.11164
 20
4.19057
  0
VERTEX
  8
0
 10
-7.10928
 20
4.20456
  0
VERTEX
  8
0
 10
-7.10713
 20
4.21844
  0
VERTEX
  8
0
 10
-7.10523
 20
4.23225
  0
VERTEX
  8
0
 10
-7.10352
 20
4.24595
  0
VERTEX
  8
0
 10
-7.10206
 20
4.25957
  0
VERTEX
  8
0
 10
-7.10081
 20
4.27309
  0
VERTEX
  8
0
 10
-7.09981
 20
4.28654
  0
VERTEX
  8
0
 10
-7.09901
 20
4.29988
  0
VERTEX
  8
0
 10
-7.09846
 20
4.31315
  0
VERTEX
  8
0
 10
-7.09811
 20
4.32633
  0
VERTEX
  8
0
 10
-7.09801
 20
4.33943
  0
VERTEX
  8
0
 10
-7.09813
 20
4.35206
  0
VERTEX
  8
0
 10
-7.09849
 20
4.36435
  0
VERTEX
  8
0
 10
-7.09909
 20
4.37627
  0
VERTEX
  8
0
 10
-7.09993
 20
4.38785
  0
VERTEX
  8
0
 10
-7.10101
 20
4.39904
  0
VERTEX
  8
0
 10
-7.10233
 20
4.4099
  0
VERTEX
  8
0
 10
-7.10389
 20
4.4204
  0
VERTEX
  8
0
 10
-7.10572
 20
4.43054
  0
VERTEX
  8
0
 10
-7.10776
 20
4.44029
  0
VERTEX
  8
0
 10
-7.11006
 20
4.44971
  0
VERTEX
  8
0
 10
-7.11258
 20
4.45875
  0
VERTEX
  8
0
 10
-7.11537
 20
4.46745
  0
VERTEX
  8
0
 10
-7.11839
 20
4.47576
  0
VERTEX
  8
0
 10
-7.12166
 20
4.48372
  0
VERTEX
  8
0
 10
-7.12517
 20
4.49131
  0
VERTEX
  8
0
 10
-7.12892
 20
4.49855
  0
VERTEX
  8
0
 10
-7.13286
 20
4.50537
  0
VERTEX
  8
0
 10
-7.13701
 20
4.51177
  0
VERTEX
  8
0
 10
-7.14135
 20
4.51772
  0
VERTEX
  8
0
 10
-7.1459
 20
4.52323
  0
VERTEX
  8
0
 10
-7.15064
 20
4.52828
  0
VERTEX
  8
0
 10
-7.15559
 20
4.53291
  0
VERTEX
  8
0
 10
-7.16073
 20
4.53709
  0
VERTEX
  8
0
 10
-7.16608
 20
4.54084
  0
VERTEX
  8
0
 10
-7.17161
 20
4.54412
  0
VERTEX
  8
0
 10
-7.17735
 20
4.54698
  0
VERTEX
  8
0
 10
-7.18328
 20
4.54939
  0
VERTEX
  8
0
 10
-7.18942
 20
4.55138
  0
VERTEX
  8
0
 10
-7.19574
 20
4.5529
  0
VERTEX
  8
0
 10
-7.20228
 20
4.554
  0
VERTEX
  8
0
 10
-7.209
 20
4.55466
  0
SEQEND
  8
0
  0
POLYLINE
  8
0
 66
     1
  0
VERTEX
  8
0
 10
-7.67256
 20
3.91883
  0
VERTEX
  8
0
 10
-7.67256
 20
3.91883
  0
VERTEX
  8
0
 10
-7.67233
 20
3.93397
  0
VERTEX
  8
0
 10
-7.6717
 20
3.94917
  0
VERTEX
  8
0
 10
-7.67064
 20
3.96439
  0
VERTEX
  8
0
 10
-7.66917
 20
3.97965
  0
VERTEX
  8
0
 10
-7.66725
 20
3.99493
  0
VERTEX
  8
0
 10
-7.66493
 20
4.01027
  0
VERTEX
  8
0
 10
-7.66217
 20
4.02562
  0
VERTEX
  8
0
 10
-7.65902
 20
4.04102
  0
VERTEX
  8
0
 10
-7.65542
 20
4.05643
  0
VERTEX
  8
0
 10
-7.6514
 20
4.07189
  0
VERTEX
  8
0
 10
-7.64696
 20
4.08737
  0
VERTEX
  8
0
 10
-7.6421
 20
4.1029
  0
VERTEX
  8
0
 10
-7.6368
 20
4.11845
  0
VERTEX
  8
0
 10
-7.6311
 20
4.13404
  0
VERTEX
  8
0
 10
-7.62497
 20
4.14966
  0
VERTEX
  8
0
 10
-7.61843
 20
4.16533
  0
VERTEX
  8
0
 10
-7.61143
 20
4.18094
  0
VERTEX
  8
0
 10
-7.60408
 20
4.19646
  0
VERTEX
  8
0
 10
-7.59637
 20
4.21188
  0
VERTEX
  8
0
 10
-7.58832
 20
4.22721
  0
VERTEX
  8
0
 10
-7.57989
 20
4.24243
  0
VERTEX
  8
0
 10
-7.57113
 20
4.25756
  0
VERTEX
  8
0
 10
-7.56201
 20
4.27259
  0
VERTEX
  8
0
 10
-7.55253
 20
4.28753
  0
VERTEX
  8
0
 10
-7.54268
 20
4.30235
  0
VERTEX
  8
0
 10
-7.53248
 20
4.31709
  0
VERTEX
  8
0
 10
-7.52192
 20
4.33172
  0
VERTEX
  8
0
 10
-7.511
 20
4.34627
  0
VERTEX
  8
0
 10
-7.49972
 20
4.36071
  0
VERTEX
  8
0
 10
-7.48808
 20
4.37506
  0
VERTEX
  8
0
 10
-7.47608
 20
4.3893
  0
VERTEX
  8
0
 10
-7.46372
 20
4.40347
  0
VERTEX
  8
0
 10
-7.45379
 20
4.41434
  0
VERTEX
  8
0
 10
-7.44388
 20
4.42489
  0
VERTEX
  8
0
 10
-7.43393
 20
4.43511
  0
VERTEX
  8
0
 10
-7.424
 20
4.44502
  0
VERTEX
  8
0
 10
-7.41404
 20
4.45458
  0
VERTEX
  8
0
 10
-7.40408
 20
4.46383
  0
VERTEX
  8
0
 10
-7.3941
 20
4.47273
  0
VERTEX
  8
0
 10
-7.38414
 20
4.48133
  0
VERTEX
  8
0
 10
-7.37413
 20
4.48957
  0
VERTEX
  8
0
 10
-7.36414
 20
4.49751
  0
VERTEX
  8
0
 10
-7.35412
 20
4.50511
  0
VERTEX
  8
0
 10
-7.34411
 20
4.5124
  0
VERTEX
  8
0
 10
-7.33406
 20
4.51934
  0
VERTEX
  8
0
 10
-7.32403
 20
4.52598
  0
VERTEX
  8
0
 10
-7.31397
 20
4.53229
  0
VERTEX
  8
0
 10
-7.30392
 20
4.53828
  0
VERTEX
  8
0
 10
-7.29385
 20
4.54386
  0
VERTEX
  8
0
 10
-7.28385
 20
4.54908
  0
VERTEX
  8
0
 10
-7.27387
 20
4.55394
  0
VERTEX
  8
0
 10
-7.26396
 20
4.55846
  0
VERTEX
  8
0
 10
-7.25406
 20
4.5626
  0
VERTEX
  8
0
 10
-7.24422
 20
4.56641
  0
VERTEX
  8
0
 10
-7.23442
 20
4.56983
  0
VERTEX
  8
0
 10
-7.22467
 20
4.57292
  0
VERTEX
  8
0
 10
-7.21495
 20
4.57562
  0
VERTEX
  8
0
 10
-7.20529
 20
4.57798
  0
VERTEX
  8
0
 10
-7.19566
 20
4.57996
  0
VERTEX
  8
0
 10
-7.18611
 20
4.58161
  0
VERTEX
  8
0
 10
-7.17658
 20
4.58287
  0
VERTEX
  8
0
 10
-7.16712
 20
4.58378
  0
VERTEX
  8
0
 10
-7.1577
 20
4.58432
  0
VERTEX
  8
0
 10
-7.14835
 20
4.58452
  0
VERTEX
  8
0
 10
-7.13815
 20
4.58428
  0
VERTEX
  8
0
 10
-7.12825
 20
4.58359
  0
VERTEX
  8
0
 10
-7.11863
 20
4.58244
  0
VERTEX
  8
0
 10
-7.1093
 20
4.58084
  0
VERTEX
  8
0
 10
-7.10024
 20
4.57876
  0
VERTEX
  8
0
 10
-7.09148
 20
4.57624
  0
VERTEX
  8
0
 10
-7.08299
 20
4.57326
  0
VERTEX
  8
0
 10
-7.0748
 20
4.56982
  0
VERTEX
  8
0
 10
-7.06686
 20
4.5659
  0
VERTEX
  8
0
 10
-7.05923
 20
4.56153
  0
VERTEX
  8
0
 10
-7.05188
 20
4.55669
  0
VERTEX
  8
0
 10
-7.04483
 20
4.5514
  0
VERTEX
  8
0
 10
-7.03805
 20
4.54563
  0
VERTEX
  8
0
 10
-7.03157
 20
4.53941
  0
VERTEX
  8
0
 10
-7.02536
 20
4.53272
  0
VERTEX
  8
0
 10
-7.01945
 20
4.52558
  0
VERTEX
  8
0
 10
-7.0138
 20
4.51803
  0
VERTEX
  8
0
 10
-7.00852
 20
4.51015
  0
VERTEX
  8
0
 10
-7.0036
 20
4.50193
  0
VERTEX
  8
0
 10
-6.99905
 20
4.49338
  0
VERTEX
  8
0
 10
-6.99485
 20
4.48447
  0
VERTEX
  8
0
 10
-6.99103
 20
4.47524
  0
VERTEX
  8
0
 10
-6.98757
 20
4.46566
  0
VERTEX
  8
0
 10
-6.98448
 20
4.45574
  0
VERTEX
  8
0
 10
-6.98174
 20
4.44545
  0
VERTEX
  8
0
 10
-6.97937
 20
4.43483
  0
VERTEX
  8
0
 10
-6.97736
 20
4.42387
  0
VERTEX
  8
0
 10
-6.97574
 20
4.41257
  0
VERTEX
  8
0
 10
-6.97445
 20
4.4009
  0
VERTEX
  8
0
 10
-6.97355
 20
4.3889
  0
VERTEX
  8
0
 10
-6.97301
 20
4.37654
  0
VERTEX
  8
0
 10
-6.97283
 20
4.36385
  0
VERTEX
  8
0
 10
-6.97304
 20
4.34726
  0
VERTEX
  8
0
 10
-6.97371
 20
4.33068
  0
VERTEX
  8
0
 10
-6.97481
 20
4.3141
  0
VERTEX
  8
0
 10
-6.97638
 20
4.29754
  0
VERTEX
  8
0
 10
-6.97837
 20
4.28097
  0
VERTEX
  8
0
 10
-6.98082
 20
4.26441
  0
VERTEX
  8
0
 10
-6.98371
 20
4.24786
  0
VERTEX
  8
0
 10
-6.98705
 20
4.23133
  0
VERTEX
  8
0
 10
-6.99082
 20
4.21479
  0
VERTEX
  8
0
 10
-6.99504
 20
4.19826
  0
VERTEX
  8
0
 10
-6.99971
 20
4.18173
  0
VERTEX
  8
0
 10
-7.00483
 20
4.16522
  0
VERTEX
  8
0
 10
-7.01037
 20
4.14871
  0
VERTEX
  8
0
 10
-7.01638
 20
4.13221
  0
VERTEX
  8
0
 10
-7.02282
 20
4.11571
  0
VERTEX
  8
0
 10
-7.02972
 20
4.09923
  0
VERTEX
  8
0
 10
-7.03701
 20
4.08279
  0
VERTEX
  8
0
 10
-7.04471
 20
4.0665
  0
VERTEX
  8
0
 10
-7.05279
 20
4.05033
  0
VERTEX
  8
0
 10
-7.06127
 20
4.03429
  0
VERTEX
  8
0
 10
-7.07013
 20
4.01836
  0
VERTEX
  8
0
 10
-7.07941
 20
4.00257
  0
VERTEX
  8
0
 10
-7.08906
 20
3.9869
  0
VERTEX
  8
0
 10
-7.09913
 20
3.97136
  0
VERTEX
  8
0
 10
-7.10957
 20
3.95591
  0
VERTEX
  8
0
 10
-7.12042
 20
3.94061
  0
VERTEX
  8
0
 10
-7.13165
 20
3.92543
  0
VERTEX
  8
0
 10
-7.14329
 20
3.91037
  0
VERTEX
  8
0
 10
-7.1553
 20
3.89542
  0
VERTEX
  8
0
 10
-7.16773
 20
3.8806
  0
VERTEX
  8
0
 10
-7.18054
 20
3.8659
  0
VERTEX
  8
0
 10
-7.19376
 20
3.85132
  0
VERTEX
  8
0
 10
-7.20333
 20
3.84136
  0
VERTEX
  8
0
 10
-7.21296
 20
3.83165
  0
VERTEX
  8
0
 10
-7.22262
 20
3.8222
  0
VERTEX
  8
0
 10
-7.23234
 20
3.81301
  0
VERTEX
  8
0
 10
-7.24208
 20
3.80406
  0
VERTEX
  8
0
 10
-7.25188
 20
3.79537
  0
VERTEX
  8
0
 10
-7.26172
 20
3.78694
  0
VERTEX
  8
0
 10
-7.27162
 20
3.77876
  0
VERTEX
  8
0
 10
-7.28153
 20
3.77083
  0
VERTEX
  8
0
 10
-7.29151
 20
3.76316
  0
VERTEX
  8
0
 10
-7.30153
 20
3.75574
  0
VERTEX
  8
0
 10
-7.31161
 20
3.74859
  0
VERTEX
  8
0
 10
-7.32171
 20
3.74169
  0
VERTEX
  8
0
 10
-7.33188
 20
3.73506
  0
VERTEX
  8
0
 10
-7.34208
 20
3.72869
  0
VERTEX
  8
0
 10
-7.35235
 20
3.72259
  0
VERTEX
  8
0
 10
-7.36258
 20
3.71678
  0
VERTEX
  8
0
 10
-7.37265
 20
3.71135
  0
VERTEX
  8
0
 10
-7.38253
 20
3.7063
  0
VERTEX
  8
0
 10
-7.39225
 20
3.70162
  0
VERTEX
  8
0
 10
-7.40178
 20
3.6973
  0
VERTEX
  8
0
 10
-7.41114
 20
3.69337
  0
VERTEX
  8
0
 10
-7.42032
 20
3.6898
  0
VERTEX
  8
0
 10
-7.42935
 20
3.68662
  0
VERTEX
  8
0
 10
-7.43818
 20
3.6838
  0
VERTEX
  8
0
 10
-7.44685
 20
3.68136
  0
VERTEX
  8
0
 10
-7.45534
 20
3.67929
  0
VERTEX
  8
0
 10
-7.46367
 20
3.67761
  0
VERTEX
  8
0
 10
-7.47181
 20
3.67629
  0
VERTEX
  8
0
 10
-7.47979
 20
3.67536
  0
VERTEX
  8
0
 10
-7.48759
 20
3.67479
  0
VERTEX
  8
0
 10
-7.49523
 20
3.67461
  0
VERTEX
  8
0
 10
-7.50544
 20
3.67485
  0
VERTEX
  8
0
 10
-7.51538
 20
3.67561
  0
VERTEX
  8
0
 10
-7.52504
 20
3.67686
  0
VERTEX
  8
0
 10
-7.53444
 20
3.67864
  0
VERTEX
  8
0
 10
-7.54354
 20
3.6809
  0
VERTEX
  8
0
 10
-7.55237
 20
3.68368
  0
VERTEX
  8
0
 10
-7.56092
 20
3.68697
  0
VERTEX
  8
0
 10
-7.5692
 20
3.69078
  0
VERTEX
  8
0
 10
-7.57718
 20
3.69507
  0
VERTEX
  8
0
 10
-7.58489
 20
3.69989
  0
VERTEX
  8
0
 10
-7.59232
 20
3.70521
  0
VERTEX
  8
0
 10
-7.59947
 20
3.71105
  0
VERTEX
  8
0
 10
-7.60633
 20
3.71739
  0
VERTEX
  8
0
 10
-7.61292
 20
3.72425
  0
VERTEX
  8
0
 10
-7.61922
 20
3.73162
  0
VERTEX
  8
0
 10
-7.62525
 20
3.73952
  0
VERTEX
  8
0
 10
-7.63095
 20
3.74778
  0
VERTEX
  8
0
 10
-7.63631
 20
3.75645
  0
VERTEX
  8
0
 10
-7.64129
 20
3.7655
  0
VERTEX
  8
0
 10
-7.64592
 20
3.77496
  0
VERTEX
  8
0
 10
-7.65016
 20
3.78479
  0
VERTEX
  8
0
 10
-7.65405
 20
3.79503
  0
VERTEX
  8
0
 10
-7.65756
 20
3.80564
  0
VERTEX
  8
0
 10
-7.66072
 20
3.81667
  0
VERTEX
  8
0
 10
-7.66348
 20
3.82806
  0
VERTEX
  8
0
 10
-7.66589
 20
3.83986
  0
VERTEX
  8
0
 10
-7.66791
 20
3.85204
  0
VERTEX
  8
0
 10
-7.66959
 20
3.86462
  0
VERTEX
  8
0
 10
-7.67088
 20
3.87757
  0
VERTEX
  8
0
 10
-7.67181
 20
3.89093
  0
VERTEX
  8
0
 10
-7.67236
 20
3.90468
  0
SEQEND
  8
0
  0
POLYLINE
  8
0
 66
     1
  0
VERTEX
  8
0
 10
-8.41831
 20
1.57352
  0
VERTEX
  8
0
 10
-8.10431
 20
2.21652
  0
VERTEX
  8
0
 10
-8.10431
 20
2.21652
  0
VERTEX
  8
0
 10
-8.1036
 20
2.21797
  0
VERTEX
  8
0
 10
-8.10272
 20
2.21976
  0
VERTEX
  8
0
 10
-8.10162
 20
2.22188
  0
VERTEX
  8
0
 10
-8.10035
 20
2.22435
  0
VERTEX
  8
0
 10
-8.09886
 20
2.22712
  0
VERTEX
  8
0
 10
-8.09719
 20
2.23025
  0
VERTEX
  8
0
 10
-8.09531
 20
2.23369
  0
VERTEX
  8
0
 10
-8.09326
 20
2.23749
  0
VERTEX
  8
0
 10
-8.09098
 20
2.24159
  0
VERTEX
  8
0
 10
-8.08852
 20
2.24604
  0
VERTEX
  8
0
 10
-8.08585
 20
2.25082
  0
VERTEX
  8
0
 10
-8.08299
 20
2.25595
  0
VERTEX
  8
0
 10
-8.07991
 20
2.26139
  0
VERTEX
  8
0
 10
-8.07665
 20
2.26719
  0
VERTEX
  8
0
 10
-8.07318
 20
2.27332
  0
VERTEX
  8
0
 10
-8.05882
 20
2.2976
  0
VERTEX
  8
0
 10
-8.05882
 20
2.2976
  0
VERTEX
  8
0
 10
-8.06757
 20
2.29168
  0
VERTEX
  8
0
 10
-8.07648
 20
2.28582
  0
VERTEX
  8
0
 10
-8.08552
 20
2.27998
  0
VERTEX
  8
0
 10
-8.09471
 20
2.2742
  0
VERTEX
  8
0
 10
-8.10403
 20
2.26843
  0
VERTEX
  8
0
 10
-8.1135
 20
2.26271
  0
VERTEX
  8
0
 10
-8.1231
 20
2.25701
  0
VERTEX
  8
0
 10
-8.13285
 20
2.25136
  0
VERTEX
  8
0
 10
-8.14272
 20
2.24571
  0
VERTEX
  8
0
 10
-8.15274
 20
2.24011
  0
VERTEX
  8
0
 10
-8.1629
 20
2.23454
  0
VERTEX
  8
0
 10
-8.1732
 20
2.229
  0
VERTEX
  8
0
 10
-8.18363
 20
2.22347
  0
VERTEX
  8
0
 10
-8.1942
 20
2.21798
  0
VERTEX
  8
0
 10
-8.20491
 20
2.21251
  0
VERTEX
  8
0
 10
-8.21577
 20
2.20708
  0
VERTEX
  8
0
 10
-8.2267
 20
2.20167
  0
VERTEX
  8
0
 10
-8.23771
 20
2.19636
  0
VERTEX
  8
0
 10
-8.24877
 20
2.19111
  0
VERTEX
  8
0
 10
-8.2599
 20
2.18596
  0
VERTEX
  8
0
 10
-8.27106
 20
2.18088
  0
VERTEX
  8
0
 10
-8.28229
 20
2.17588
  0
VERTEX
  8
0
 10
-8.29357
 20
2.17095
  0
VERTEX
  8
0
 10
-8.30491
 20
2.1661
  0
VERTEX
  8
0
 10
-8.31628
 20
2.16132
  0
VERTEX
  8
0
 10
-8.32772
 20
2.15662
  0
VERTEX
  8
0
 10
-8.33921
 20
2.15199
  0
VERTEX
  8
0
 10
-8.35077
 20
2.14745
  0
VERTEX
  8
0
 10
-8.36235
 20
2.14297
  0
VERTEX
  8
0
 10
-8.37402
 20
2.13857
  0
VERTEX
  8
0
 10
-8.38572
 20
2.13425
  0
VERTEX
  8
0
 10
-8.40156
 20
2.14934
  0
VERTEX
  8
0
 10
-8.40156
 20
2.14934
  0
VERTEX
  8
0
 10
-8.38351
 20
2.15496
  0
VERTEX
  8
0
 10
-8.36556
 20
2.1609
  0
VERTEX
  8
0
 10
-8.34769
 20
2.16711
  0
VERTEX
  8
0
 10
-8.32992
 20
2.17363
  0
VERTEX
  8
0
 10
-8.31222
 20
2.18041
  0
VERTEX
  8
0
 10
-8.29462
 20
2.18751
  0
VERTEX
  8
0
 10
-8.27711
 20
2.19487
  0
VERTEX
  8
0
 10
-8.2597
 20
2.20255
  0
VERTEX
  8
0
 10
-8.24235
 20
2.21049
  0
VERTEX
  8
0
 10
-8.2251
 20
2.21874
  0
VERTEX
  8
0
 10
-8.20793
 20
2.22726
  0
VERTEX
  8
0
 10
-8.19087
 20
2.23609
  0
VERTEX
  8
0
 10
-8.17388
 20
2.24519
  0
VERTEX
  8
0
 10
-8.15699
 20
2.2546
  0
VERTEX
  8
0
 10
-8.14018
 20
2.26428
  0
VERTEX
  8
0
 10
-8.12348
 20
2.27427
  0
VERTEX
  8
0
 10
-8.10679
 20
2.28461
  0
VERTEX
  8
0
 10
-8.09017
 20
2.29526
  0
VERTEX
  8
0
 10
-8.07361
 20
2.30622
  0
VERTEX
  8
0
 10
-8.05711
 20
2.3175
  0
VERTEX
  8
0
 10
-8.04064
 20
2.32908
  0
VERTEX
  8
0
 10
-8.02426
 20
2.34097
  0
VERTEX
  8
0
 10
-8.00793
 20
2.35317
  0
VERTEX
  8
0
 10
-7.99167
 20
2.36568
  0
VERTEX
  8
0
 10
-7.97544
 20
2.37849
  0
VERTEX
  8
0
 10
-7.95928
 20
2.39161
  0
VERTEX
  8
0
 10
-7.94317
 20
2.40504
  0
VERTEX
  8
0
 10
-7.92712
 20
2.41878
  0
VERTEX
  8
0
 10
-7.9111
 20
2.43282
  0
VERTEX
  8
0
 10
-7.89517
 20
2.44717
  0
VERTEX
  8
0
 10
-7.87927
 20
2.46183
  0
VERTEX
  8
0
 10
-7.85067
 20
2.46509
  0
VERTEX
  8
0
 10
-8.26627
 20
1.59794
  0
VERTEX
  8
0
 10
-8.14385
 20
1.60977
  0
VERTEX
  8
0
 10
-8.14843
 20
1.59371
  0
VERTEX
  8
0
 10
-8.14843
 20
1.59371
  0
VERTEX
  8
0
 10
-8.15431
 20
1.5933
  0
VERTEX
  8
0
 10
-8.16028
 20
1.5929
  0
VERTEX
  8
0
 10
-8.16631
 20
1.59248
  0
VERTEX
  8
0
 10
-8.17242
 20
1.59206
  0
VERTEX
  8
0
 10
-8.17859
 20
1.59161
  0
VERTEX
  8
0
 10
-8.18483
 20
1.59116
  0
VERTEX
  8
0
 10
-8.19114
 20
1.59069
  0
VERTEX
  8
0
 10
-8.19753
 20
1.59024
  0
VERTEX
  8
0
 10
-8.20397
 20
1.58975
  0
VERTEX
  8
0
 10
-8.21048
 20
1.58927
  0
VERTEX
  8
0
 10
-8.21706
 20
1.58876
  0
VERTEX
  8
0
 10
-8.22372
 20
1.58828
  0
VERTEX
  8
0
 10
-8.23044
 20
1.58776
  0
VERTEX
  8
0
 10
-8.23722
 20
1.58725
  0
VERTEX
  8
0
 10
-8.24406
 20
1.58673
  0
VERTEX
  8
0
 10
-8.25099
 20
1.58622
  0
VERTEX
  8
0
 10
-8.25815
 20
1.58564
  0
VERTEX
  8
0
 10
-8.26575
 20
1.58506
  0
VERTEX
  8
0
 10
-8.27379
 20
1.58444
  0
VERTEX
  8
0
 10
-8.28228
 20
1.5838
  0
VERTEX
  8
0
 10
-8.29119
 20
1.58312
  0
VERTEX
  8
0
 10
-8.30055
 20
1.58242
  0
VERTEX
  8
0
 10
-8.31035
 20
1.58168
  0
VERTEX
  8
0
 10
-8.32059
 20
1.58092
  0
VERTEX
  8
0
 10
-8.33126
 20
1.5801
  0
VERTEX
  8
0
 10
-8.34237
 20
1.57927
  0
VERTEX
  8
0
 10
-8.35392
 20
1.5784
  0
VERTEX
  8
0
 10
-8.36593
 20
1.57751
  0
VERTEX
  8
0
 10
-8.37836
 20
1.57656
  0
VERTEX
  8
0
 10
-8.39124
 20
1.57558
  0
VERTEX
  8
0
 10
-8.40455
 20
1.57456
  0
SEQEND
  8
0
  0
POLYLINE
  8
0
 66
     1
  0
VERTEX
  8
0
 10
-7.4032
 20
2.22206
  0
VERTEX
  8
0
 10
-7.4032
 20
2.22206
  0
VERTEX
  8
0
 10
-7.40689
 20
2.22195
  0
VERTEX
  8
0
 10
-7.41062
 20
2.22165
  0
VERTEX
  8
0
 10
-7.41437
 20
2.22115
  0
VERTEX
  8
0
 10
-7.41816
 20
2.22048
  0
VERTEX
  8
0
 10
-7.42196
 20
2.21958
  0
VERTEX
  8
0
 10
-7.42579
 20
2.2185
  0
VERTEX
  8
0
 10
-7.42964
 20
2.21722
  0
VERTEX
  8
0
 10
-7.43353
 20
2.21576
  0
VERTEX
  8
0
 10
-7.43742
 20
2.21406
  0
VERTEX
  8
0
 10
-7.44134
 20
2.21219
  0
VERTEX
  8
0
 10
-7.44529
 20
2.21011
  0
VERTEX
  8
0
 10
-7.44926
 20
2.20785
  0
VERTEX
  8
0
 10
-7.45324
 20
2.20537
  0
VERTEX
  8
0
 10
-7.45726
 20
2.2027
  0
VERTEX
  8
0
 10
-7.4613
 20
2.19983
  0
VERTEX
  8
0
 10
-7.46536
 20
2.19677
  0
VERTEX
  8
0
 10
-7.46947
 20
2.19347
  0
VERTEX
  8
0
 10
-7.47362
 20
2.19001
  0
VERTEX
  8
0
 10
-7.47778
 20
2.18635
  0
VERTEX
  8
0
 10
-7.48197
 20
2.18254
  0
VERTEX
  8
0
 10
-7.48617
 20
2.17852
  0
VERTEX
  8
0
 10
-7.4904
 20
2.17433
  0
VERTEX
  8
0
 10
-7.49465
 20
2.16993
  0
VERTEX
  8
0
 10
-7.49892
 20
2.16537
  0
VERTEX
  8
0
 10
-7.5032
 20
2.16059
  0
VERTEX
  8
0
 10
-7.5075
 20
2.15564
  0
VERTEX
  8
0
 10
-7.51181
 20
2.15048
  0
VERTEX
  8
0
 10
-7.51615
 20
2.14514
  0
VERTEX
  8
0
 10
-7.52049
 20
2.13959
  0
VERTEX
  8
0
 10
-7.52486
 20
2.13385
  0
VERTEX
  8
0
 10
-7.52924
 20
2.1279
  0
VERTEX
  8
0
 10
-7.53365
 20
2.12177
  0
VERTEX
  8
0
 10
-7.54032
 20
2.11237
  0
VERTEX
  8
0
 10
-7.54683
 20
2.10278
  0
VERTEX
  8
0
 10
-7.55314
 20
2.09297
  0
VERTEX
  8
0
 10
-7.55929
 20
2.08297
  0
VERTEX
  8
0
 10
-7.56523
 20
2.07275
  0
VERTEX
  8
0
 10
-7.571
 20
2.06232
  0
VERTEX
  8
0
 10
-7.57658
 20
2.05168
  0
VERTEX
  8
0
 10
-7.582
 20
2.04083
  0
VERTEX
  8
0
 10
-7.58719
 20
2.02975
  0
VERTEX
  8
0
 10
-7.59223
 20
2.01846
  0
VERTEX
  8
0
 10
-7.59706
 20
2.00695
  0
VERTEX
  8
0
 10
-7.60173
 20
1.99523
  0
VERTEX
  8
0
 10
-7.60619
 20
1.98328
  0
VERTEX
  8
0
 10
-7.61048
 20
1.97113
  0
VERTEX
  8
0
 10
-7.61458
 20
1.95874
  0
VERTEX
  8
0
 10
-7.61851
 20
1.94614
  0
VERTEX
  8
0
 10
-7.62218
 20
1.93346
  0
VERTEX
  8
0
 10
-7.62563
 20
1.92077
  0
VERTEX
  8
0
 10
-7.62884
 20
1.90805
  0
VERTEX
  8
0
 10
-7.63181
 20
1.89533
  0
VERTEX
  8
0
 10
-7.63454
 20
1.88257
  0
VERTEX
  8
0
 10
-7.63703
 20
1.86981
  0
VERTEX
  8
0
 10
-7.63928
 20
1.85701
  0
VERTEX
  8
0
 10
-7.64131
 20
1.84422
  0
VERTEX
  8
0
 10
-7.64308
 20
1.83137
  0
VERTEX
  8
0
 10
-7.64462
 20
1.81852
  0
VERTEX
  8
0
 10
-7.64591
 20
1.80564
  0
VERTEX
  8
0
 10
-7.64699
 20
1.79276
  0
VERTEX
  8
0
 10
-7.64782
 20
1.77984
  0
VERTEX
  8
0
 10
-7.64842
 20
1.76691
  0
VERTEX
  8
0
 10
-7.64878
 20
1.75396
  0
VERTEX
  8
0
 10
-7.6489
 20
1.741
  0
VERTEX
  8
0
 10
-7.64879
 20
1.73137
  0
VERTEX
  8
0
 10
-7.64851
 20
1.72202
  0
VERTEX
  8
0
 10
-7.64801
 20
1.71292
  0
VERTEX
  8
0
 10
-7.64735
 20
1.7041
  0
VERTEX
  8
0
 10
-7.64647
 20
1.69552
  0
VERTEX
  8
0
 10
-7.64542
 20
1.68722
  0
VERTEX
  8
0
 10
-7.64416
 20
1.67919
  0
VERTEX
  8
0
 10
-7.64273
 20
1.67143
  0
VERTEX
  8
0
 10
-7.64108
 20
1.66392
  0
VERTEX
  8
0
 10
-7.63927
 20
1.65668
  0
VERTEX
  8
0
 10
-7.63725
 20
1.64971
  0
VERTEX
  8
0
 10
-7.63506
 20
1.64301
  0
VERTEX
  8
0
 10
-7.63266
 20
1.63657
  0
VERTEX
  8
0
 10
-7.63009
 20
1.63041
  0
VERTEX
  8
0
 10
-7.62733
 20
1.62451
  0
VERTEX
  8
0
 10
-7.62439
 20
1.61889
  0
VERTEX
  8
0
 10
-7.62126
 20
1.61361
  0
VERTEX
  8
0
 10
-7.618
 20
1.60868
  0
VERTEX
  8
0
 10
-7.61459
 20
1.60408
  0
VERTEX
  8
0
 10
-7.61105
 20
1.59984
  0
VERTEX
  8
0
 10
-7.60735
 20
1.59591
  0
VERTEX
  8
0
 10
-7.60352
 20
1.59233
  0
VERTEX
  8
0
 10
-7.59954
 20
1.58909
  0
VERTEX
  8
0
 10
-7.59542
 20
1.5862
  0
VERTEX
  8
0
 10
-7.59114
 20
1.58363
  0
VERTEX
  8
0
 10
-7.58673
 20
1.58141
  0
VERTEX
  8
0
 10
-7.58216
 20
1.57952
  0
VERTEX
  8
0
 10
-7.57747
 20
1.57799
  0
VERTEX
  8
0
 10
-7.57262
 20
1.57678
  0
VERTEX
  8
0
 10
-7.56763
 20
1.57593
  0
VERTEX
  8
0
 10
-7.56249
 20
1.57542
  0
VERTEX
  8
0
 10
-7.55722
 20
1.57526
  0
VERTEX
  8
0
 10
-7.5535
 20
1.57533
  0
VERTEX
  8
0
 10
-7.5498
 20
1.57559
  0
VERTEX
  8
0
 10
-7.54608
 20
1.576
  0
VERTEX
  8
0
 10
-7.54237
 20
1.5766
  0
VERTEX
  8
0
 10
-7.53862
 20
1.57735
  0
VERTEX
  8
0
 10
-7.53489
 20
1.57829
  0
VERTEX
  8
0
 10
-7.53114
 20
1.57938
  0
VERTEX
  8
0
 10
-7.52739
 20
1.58067
  0
VERTEX
  8
0
 10
-7.52361
 20
1.5821
  0
VERTEX
  8
0
 10
-7.51983
 20
1.58372
  0
VERTEX
  8
0
 10
-7.51602
 20
1.58549
  0
VERTEX
  8
0
 10
-7.51223
 20
1.58747
  0
VERTEX
  8
0
 10
-7.5084
 20
1.5896
  0
VERTEX
  8
0
 10
-7.50458
 20
1.59191
  0
VERTEX
  8
0
 10
-7.50072
 20
1.5944
  0
VERTEX
  8
0
 10
-7.49687
 20
1.59707
  0
VERTEX
  8
0
 10
-7.493
 20
1.59988
  0
VERTEX
  8
0
 10
-7.48916
 20
1.60284
  0
VERTEX
  8
0
 10
-7.48532
 20
1.60594
  0
VERTEX
  8
0
 10
-7.48148
 20
1.60919
  0
VERTEX
  8
0
 10
-7.47764
 20
1.61257
  0
VERTEX
  8
0
 10
-7.47382
 20
1.61611
  0
VERTEX
  8
0
 10
-7.47
 20
1.61979
  0
VERTEX
  8
0
 10
-7.46619
 20
1.62363
  0
VERTEX
  8
0
 10
-7.46238
 20
1.62759
  0
VERTEX
  8
0
 10
-7.45857
 20
1.63171
  0
VERTEX
  8
0
 10
-7.45477
 20
1.63596
  0
VERTEX
  8
0
 10
-7.45099
 20
1.64038
  0
VERTEX
  8
0
 10
-7.44721
 20
1.64493
  0
VERTEX
  8
0
 10
-7.44343
 20
1.64963
  0
VERTEX
  8
0
 10
-7.43967
 20
1.65448
  0
VERTEX
  8
0
 10
-7.43592
 20
1.65949
  0
VERTEX
  8
0
 10
-7.42938
 20
1.66867
  0
VERTEX
  8
0
 10
-7.42301
 20
1.67816
  0
VERTEX
  8
0
 10
-7.41679
 20
1.68794
  0
VERTEX
  8
0
 10
-7.41074
 20
1.69805
  0
VERTEX
  8
0
 10
-7.40482
 20
1.70845
  0
VERTEX
  8
0
 10
-7.39907
 20
1.71916
  0
VERTEX
  8
0
 10
-7.39347
 20
1.73017
  0
VERTEX
  8
0
 10
-7.38803
 20
1.74148
  0
VERTEX
  8
0
 10
-7.38273
 20
1.75308
  0
VERTEX
  8
0
 10
-7.37759
 20
1.76499
  0
VERTEX
  8
0
 10
-7.37259
 20
1.7772
  0
VERTEX
  8
0
 10
-7.36776
 20
1.78971
  0
VERTEX
  8
0
 10
-7.36306
 20
1.80249
  0
VERTEX
  8
0
 10
-7.35854
 20
1.8156
  0
VERTEX
  8
0
 10
-7.35415
 20
1.82899
  0
VERTEX
  8
0
 10
-7.34993
 20
1.8427
  0
VERTEX
  8
0
 10
-7.3459
 20
1.85653
  0
VERTEX
  8
0
 10
-7.34215
 20
1.8703
  0
VERTEX
  8
0
 10
-7.33864
 20
1.88401
  0
VERTEX
  8
0
 10
-7.33541
 20
1.89769
  0
VERTEX
  8
0
 10
-7.33243
 20
1.9113
  0
VERTEX
  8
0
 10
-7.32971
 20
1.92486
  0
VERTEX
  8
0
 10
-7.32725
 20
1.93836
  0
VERTEX
  8
0
 10
-7.32506
 20
1.95182
  0
VERTEX
  8
0
 10
-7.32311
 20
1.96521
  0
VERTEX
  8
0
 10
-7.32143
 20
1.97856
  0
VERTEX
  8
0
 10
-7.32001
 20
1.99185
  0
VERTEX
  8
0
 10
-7.31885
 20
2.00511
  0
VERTEX
  8
0
 10
-7.31794
 20
2.01831
  0
VERTEX
  8
0
 10
-7.31729
 20
2.03146
  0
VERTEX
  8
0
 10
-7.3169
 20
2.04456
  0
VERTEX
  8
0
 10
-7.31678
 20
2.05762
  0
VERTEX
  8
0
 10
-7.31687
 20
2.06718
  0
VERTEX
  8
0
 10
-7.31714
 20
2.07648
  0
VERTEX
  8
0
 10
-7.31759
 20
2.0855
  0
VERTEX
  8
0
 10
-7.31823
 20
2.09427
  0
VERTEX
  8
0
 10
-7.31904
 20
2.10275
  0
VERTEX
  8
0
 10
-7.32003
 20
2.11098
  0
VERTEX
  8
0
 10
-7.3212
 20
2.11893
  0
VERTEX
  8
0
 10
-7.32258
 20
2.12663
  0
VERTEX
  8
0
 10
-7.32411
 20
2.13404
  0
VERTEX
  8
0
 10
-7.32582
 20
2.1412
  0
VERTEX
  8
0
 10
-7.32771
 20
2.14808
  0
VERTEX
  8
0
 10
-7.32981
 20
2.15472
  0
VERTEX
  8
0
 10
-7.33206
 20
2.16108
  0
VERTEX
  8
0
 10
-7.33449
 20
2.16719
  0
VERTEX
  8
0
 10
-7.3371
 20
2.17304
  0
VERTEX
  8
0
 10
-7.33992
 20
2.17864
  0
VERTEX
  8
0
 10
-7.34285
 20
2.18389
  0
VERTEX
  8
0
 10
-7.34592
 20
2.18881
  0
VERTEX
  8
0
 10
-7.34912
 20
2.19339
  0
VERTEX
  8
0
 10
-7.35248
 20
2.19764
  0
VERTEX
  8
0
 10
-7.35596
 20
2.20153
  0
VERTEX
  8
0
 10
-7.35959
 20
2.2051
  0
VERTEX
  8
0
 10
-7.36335
 20
2.20832
  0
VERTEX
  8
0
 10
-7.36725
 20
2.21121
  0
VERTEX
  8
0
 10
-7.37127
 20
2.21375
  0
VERTEX
  8
0
 10
-7.37543
 20
2.21595
  0
VERTEX
  8
0
 10
-7.37972
 20
2.21781
  0
VERTEX
  8
0
 10
-7.38416
 20
2.21934
  0
VERTEX
  8
0
 10
-7.38872
 20
2.22052
  0
VERTEX
  8
0
 10
-7.39341
 20
2.22137
  0
VERTEX
  8
0
 10
-7.39824
 20
2.22188
  0
SEQEND
  8
0
  0
POLYLINE
  8
0
 66
     1
  0
VERTEX
  8
0
 10
-7.56525
 20
2.09995
  0
VERTEX
  8
0
 10
-7.56525
 20
2.09995
  0
VERTEX
  8
0
 10
-7.55875
 20
2.10937
  0
VERTEX
  8
0
 10
-7.55227
 20
2.11852
  0
VERTEX
  8
0
 10
-7.54577
 20
2.12736
  0
VERTEX
  8
0
 10
-7.53929
 20
2.13591
  0
VERTEX
  8
0
 10
-7.53278
 20
2.14416
  0
VERTEX
  8
0
 10
-7.52627
 20
2.15211
  0
VERTEX
  8
0
 10
-7.51974
 20
2.15978
  0
VERTEX
  8
0
 10
-7.51322
 20
2.16716
  0
VERTEX
  8
0
 10
-7.50665
 20
2.17423
  0
VERTEX
  8
0
 10
-7.50009
 20
2.18101
  0
VERTEX
  8
0
 10
-7.4935
 20
2.18751
  0
VERTEX
  8
0
 10
-7.48692
 20
2.19372
  0
VERTEX
  8
0
 10
-7.48029
 20
2.19963
  0
VERTEX
  8
0
 10
-7.47366
 20
2.20526
  0
VERTEX
  8
0
 10
-7.46701
 20
2.2106
  0
VERTEX
  8
0
 10
-7.46035
 20
2.21566
  0
VERTEX
  8
0
 10
-7.45369
 20
2.22039
  0
VERTEX
  8
0
 10
-7.44703
 20
2.22483
  0
VERTEX
  8
0
 10
-7.44035
 20
2.22895
  0
VERTEX
  8
0
 10
-7.43366
 20
2.23279
  0
VERTEX
  8
0
 10
-7.42694
 20
2.23629
  0
VERTEX
  8
0
 10
-7.42022
 20
2.2395
  0
VERTEX
  8
0
 10
-7.41347
 20
2.24239
  0
VERTEX
  8
0
 10
-7.40672
 20
2.245
  0
VERTEX
  8
0
 10
-7.39994
 20
2.24727
  0
VERTEX
  8
0
 10
-7.39316
 20
2.24925
  0
VERTEX
  8
0
 10
-7.38636
 20
2.25092
  0
VERTEX
  8
0
 10
-7.37957
 20
2.2523
  0
VERTEX
  8
0
 10
-7.37274
 20
2.25335
  0
VERTEX
  8
0
 10
-7.36593
 20
2.25411
  0
VERTEX
  8
0
 10
-7.35909
 20
2.25456
  0
VERTEX
  8
0
 10
-7.35226
 20
2.25473
  0
VERTEX
  8
0
 10
-7.3439
 20
2.2545
  0
VERTEX
  8
0
 10
-7.33576
 20
2.25383
  0
VERTEX
  8
0
 10
-7.32783
 20
2.25271
  0
VERTEX
  8
0
 10
-7.32013
 20
2.25117
  0
VERTEX
  8
0
 10
-7.31262
 20
2.24917
  0
VERTEX
  8
0
 10
-7.30533
 20
2.24673
  0
VERTEX
  8
0
 10
-7.29824
 20
2.24384
  0
VERTEX
  8
0
 10
-7.29138
 20
2.24053
  0
VERTEX
  8
0
 10
-7.2847
 20
2.23674
  0
VERTEX
  8
0
 10
-7.27824
 20
2.23253
  0
VERTEX
  8
0
 10
-7.27199
 20
2.22786
  0
VERTEX
  8
0
 10
-7.26597
 20
2.22275
  0
VERTEX
  8
0
 10
-7.26013
 20
2.21718
  0
VERTEX
  8
0
 10
-7.25451
 20
2.21119
  0
VERTEX
  8
0
 10
-7.2491
 20
2.20473
  0
VERTEX
  8
0
 10
-7.24392
 20
2.19785
  0
VERTEX
  8
0
 10
-7.23897
 20
2.19059
  0
VERTEX
  8
0
 10
-7.23435
 20
2.18304
  0
VERTEX
  8
0
 10
-7.23003
 20
2.17518
  0
VERTEX
  8
0
 10
-7.22604
 20
2.16705
  0
VERTEX
  8
0
 10
-7.22235
 20
2.15859
  0
VERTEX
  8
0
 10
-7.219
 20
2.14986
  0
VERTEX
  8
0
 10
-7.21596
 20
2.1408
  0
VERTEX
  8
0
 10
-7.21325
 20
2.13147
  0
VERTEX
  8
0
 10
-7.21084
 20
2.12181
  0
VERTEX
  8
0
 10
-7.20875
 20
2.11188
  0
VERTEX
  8
0
 10
-7.20698
 20
2.10162
  0
VERTEX
  8
0
 10
-7.20555
 20
2.09109
  0
VERTEX
  8
0
 10
-7.20442
 20
2.08023
  0
VERTEX
  8
0
 10
-7.20362
 20
2.06909
  0
VERTEX
  8
0
 10
-7.20314
 20
2.05763
  0
VERTEX
  8
0
 10
-7.20299
 20
2.0459
  0
VERTEX
  8
0
 10
-7.20312
 20
2.03482
  0
VERTEX
  8
0
 10
-7.20357
 20
2.02373
  0
VERTEX
  8
0
 10
-7.2043
 20
2.01261
  0
VERTEX
  8
0
 10
-7.20535
 20
2.00147
  0
VERTEX
  8
0
 10
-7.20667
 20
1.99029
  0
VERTEX
  8
0
 10
-7.2083
 20
1.97909
  0
VERTEX
  8
0
 10
-7.21022
 20
1.96786
  0
VERTEX
  8
0
 10
-7.21246
 20
1.95662
  0
VERTEX
  8
0
 10
-7.21497
 20
1.94532
  0
VERTEX
  8
0
 10
-7.21779
 20
1.93401
  0
VERTEX
  8
0
 10
-7.22091
 20
1.92266
  0
VERTEX
  8
0
 10
-7.22433
 20
1.9113
  0
VERTEX
  8
0
 10
-7.22802
 20
1.89989
  0
VERTEX
  8
0
 10
-7.23204
 20
1.88845
  0
VERTEX
  8
0
 10
-7.23636
 20
1.87698
  0
VERTEX
  8
0
 10
-7.24098
 20
1.8655
  0
VERTEX
  8
0
 10
-7.24581
 20
1.85401
  0
VERTEX
  8
0
 10
-7.25088
 20
1.84264
  0
VERTEX
  8
0
 10
-7.25619
 20
1.83139
  0
VERTEX
  8
0
 10
-7.26174
 20
1.82026
  0
VERTEX
  8
0
 10
-7.26753
 20
1.80922
  0
VERTEX
  8
0
 10
-7.27356
 20
1.79833
  0
VERTEX
  8
0
 10
-7.27983
 20
1.78754
  0
VERTEX
  8
0
 10
-7.28634
 20
1.77689
  0
VERTEX
  8
0
 10
-7.29307
 20
1.76632
  0
VERTEX
  8
0
 10
-7.30006
 20
1.75588
  0
VERTEX
  8
0
 10
-7.30729
 20
1.74555
  0
VERTEX
  8
0
 10
-7.31476
 20
1.73535
  0
VERTEX
  8
0
 10
-7.32244
 20
1.72524
  0
VERTEX
  8
0
 10
-7.33039
 20
1.71526
  0
VERTEX
  8
0
 10
-7.33857
 20
1.70538
  0
VERTEX
  8
0
 10
-7.347
 20
1.69563
  0
VERTEX
  8
0
 10
-7.35437
 20
1.68744
  0
VERTEX
  8
0
 10
-7.36177
 20
1.67951
  0
VERTEX
  8
0
 10
-7.3692
 20
1.67178
  0
VERTEX
  8
0
 10
-7.37668
 20
1.6643
  0
VERTEX
  8
0
 10
-7.38417
 20
1.65703
  0
VERTEX
  8
0
 10
-7.39171
 20
1.65001
  0
VERTEX
  8
0
 10
-7.39926
 20
1.6432
  0
VERTEX
  8
0
 10
-7.40686
 20
1.63665
  0
VERTEX
  8
0
 10
-7.41447
 20
1.6303
  0
VERTEX
  8
0
 10
-7.42213
 20
1.6242
  0
VERTEX
  8
0
 10
-7.42982
 20
1.61832
  0
VERTEX
  8
0
 10
-7.43755
 20
1.6127
  0
VERTEX
  8
0
 10
-7.4453
 20
1.60728
  0
VERTEX
  8
0
 10
-7.45311
 20
1.60212
  0
VERTEX
  8
0
 10
-7.46093
 20
1.59719
  0
VERTEX
  8
0
 10
-7.46881
 20
1.59251
  0
VERTEX
  8
0
 10
-7.47664
 20
1.58806
  0
VERTEX
  8
0
 10
-7.48443
 20
1.58392
  0
VERTEX
  8
0
 10
-7.49212
 20
1.58005
  0
VERTEX
  8
0
 10
-7.49977
 20
1.5765
  0
VERTEX
  8
0
 10
-7.50733
 20
1.57321
  0
VERTEX
  8
0
 10
-7.51483
 20
1.57023
  0
VERTEX
  8
0
 10
-7.52225
 20
1.56751
  0
VERTEX
  8
0
 10
-7.52963
 20
1.56511
  0
VERTEX
  8
0
 10
-7.5369
 20
1.56296
  0
VERTEX
  8
0
 10
-7.54413
 20
1.56112
  0
VERTEX
  8
0
 10
-7.55127
 20
1.55956
  0
VERTEX
  8
0
 10
-7.55837
 20
1.5583
  0
VERTEX
  8
0
 10
-7.56538
 20
1.55729
  0
VERTEX
  8
0
 10
-7.57234
 20
1.55659
  0
VERTEX
  8
0
 10
-7.57921
 20
1.55617
  0
VERTEX
  8
0
 10
-7.58605
 20
1.55604
  0
VERTEX
  8
0
 10
-7.59537
 20
1.55628
  0
VERTEX
  8
0
 10
-7.60444
 20
1.55703
  0
VERTEX
  8
0
 10
-7.61324
 20
1.55828
  0
VERTEX
  8
0
 10
-7.62178
 20
1.56003
  0
VERTEX
  8
0
 10
-7.63004
 20
1.56227
  0
VERTEX
  8
0
 10
-7.63804
 20
1.56502
  0
VERTEX
  8
0
 10
-7.64578
 20
1.56826
  0
VERTEX
  8
0
 10
-7.65327
 20
1.57202
  0
VERTEX
  8
0
 10
-7.66047
 20
1.57626
  0
VERTEX
  8
0
 10
-7.66742
 20
1.58101
  0
VERTEX
  8
0
 10
-7.67411
 20
1.58626
  0
VERTEX
  8
0
 10
-7.68056
 20
1.59203
  0
VERTEX
  8
0
 10
-7.68672
 20
1.59828
  0
VERTEX
  8
0
 10
-7.69265
 20
1.60504
  0
VERTEX
  8
0
 10
-7.69831
 20
1.6123
  0
VERTEX
  8
0
 10
-7.70373
 20
1.62008
  0
VERTEX
  8
0
 10
-7.70881
 20
1.62823
  0
VERTEX
  8
0
 10
-7.71359
 20
1.63679
  0
VERTEX
  8
0
 10
-7.71803
 20
1.64574
  0
VERTEX
  8
0
 10
-7.72216
 20
1.65509
  0
VERTEX
  8
0
 10
-7.72595
 20
1.66482
  0
VERTEX
  8
0
 10
-7.72942
 20
1.67495
  0
VERTEX
  8
0
 10
-7.73256
 20
1.68546
  0
VERTEX
  8
0
 10
-7.73539
 20
1.69637
  0
VERTEX
  8
0
 10
-7.73786
 20
1.70765
  0
VERTEX
  8
0
 10
-7.74002
 20
1.71934
  0
VERTEX
  8
0
 10
-7.74184
 20
1.73141
  0
VERTEX
  8
0
 10
-7.74335
 20
1.74388
  0
VERTEX
  8
0
 10
-7.74451
 20
1.75673
  0
VERTEX
  8
0
 10
-7.74535
 20
1.76998
  0
VERTEX
  8
0
 10
-7.74585
 20
1.78361
  0
VERTEX
  8
0
 10
-7.74603
 20
1.79766
  0
VERTEX
  8
0
 10
-7.7457
 20
1.81996
  0
VERTEX
  8
0
 10
-7.74475
 20
1.84228
  0
VERTEX
  8
0
 10
-7.74317
 20
1.86462
  0
VERTEX
  8
0
 10
-7.74096
 20
1.88698
  0
VERTEX
  8
0
 10
-7.7381
 20
1.90933
  0
VERTEX
  8
0
 10
-7.73462
 20
1.93172
  0
VERTEX
  8
0
 10
-7.7305
 20
1.95412
  0
VERTEX
  8
0
 10
-7.72577
 20
1.97654
  0
VERTEX
  8
0
 10
-7.72038
 20
1.99897
  0
VERTEX
  8
0
 10
-7.71437
 20
2.02142
  0
VERTEX
  8
0
 10
-7.70773
 20
2.04388
  0
VERTEX
  8
0
 10
-7.70046
 20
2.06637
  0
VERTEX
  8
0
 10
-7.69255
 20
2.08886
  0
VERTEX
  8
0
 10
-7.68401
 20
2.11139
  0
VERTEX
  8
0
 10
-7.67484
 20
2.13393
  0
VERTEX
  8
0
 10
-7.66505
 20
2.1565
  0
VERTEX
  8
0
 10
-7.65462
 20
2.17894
  0
VERTEX
  8
0
 10
-7.64367
 20
2.20117
  0
VERTEX
  8
0
 10
-7.6322
 20
2.22316
  0
VERTEX
  8
0
 10
-7.6202
 20
2.24494
  0
VERTEX
  8
0
 10
-7.60766
 20
2.26648
  0
VERTEX
  8
0
 10
-7.59459
 20
2.28779
  0
VERTEX
  8
0
 10
-7.58099
 20
2.30888
  0
VERTEX
  8
0
 10
-7.56687
 20
2.32976
  0
VERTEX
  8
0
 10
-7.5522
 20
2.35039
  0
VERTEX
  8
0
 10
-7.53701
 20
2.37081
  0
VERTEX
  8
0
 10
-7.52129
 20
2.391
  0
VERTEX
  8
0
 10
-7.50504
 20
2.41098
  0
VERTEX
  8
0
 10
-7.48824
 20
2.43072
  0
VERTEX
  8
0
 10
-7.47093
 20
2.45025
  0
VERTEX
  8
0
 10
-7.45308
 20
2.46955
  0
VERTEX
  8
0
 10
-7.43471
 20
2.48864
  0
VERTEX
  8
0
 10
-7.42138
 20
2.50193
  0
VERTEX
  8
0
 10
-7.4079
 20
2.51487
  0
VERTEX
  8
0
 10
-7.39427
 20
2.52747
  0
VERTEX
  8
0
 10
-7.3805
 20
2.53972
  0
VERTEX
  8
0
 10
-7.36656
 20
2.55162
  0
VERTEX
  8
0
 10
-7.35247
 20
2.56318
  0
VERTEX
  8
0
 10
-7.33822
 20
2.57439
  0
VERTEX
  8
0
 10
-7.32383
 20
2.58526
  0
VERTEX
  8
0
 10
-7.30926
 20
2.59578
  0
VERTEX
  8
0
 10
-7.29455
 20
2.60596
  0
VERTEX
  8
0
 10
-7.27968
 20
2.61579
  0
VERTEX
  8
0
 10
-7.26466
 20
2.6253
  0
VERTEX
  8
0
 10
-7.24947
 20
2.63445
  0
VERTEX
  8
0
 10
-7.23413
 20
2.64328
  0
VERTEX
  8
0
 10
-7.21864
 20
2.65176
  0
VERTEX
  8
0
 10
-7.20299
 20
2.65992
  0
VERTEX
  8
0
 10
-7.18734
 20
2.66757
  0
VERTEX
  8
0
 10
-7.17188
 20
2.67476
  0
VERTEX
  8
0
 10
-7.15656
 20
2.68143
  0
VERTEX
  8
0
 10
-7.14143
 20
2.68764
  0
VERTEX
  8
0
 10
-7.12644
 20
2.69334
  0
VERTEX
  8
0
 10
-7.11164
 20
2.69856
  0
VERTEX
  8
0
 10
-7.097
 20
2.70327
  0
VERTEX
  8
0
 10
-7.08254
 20
2.7075
  0
VERTEX
  8
0
 10
-7.06823
 20
2.71122
  0
VERTEX
  8
0
 10
-7.0541
 20
2.71445
  0
VERTEX
  8
0
 10
-7.04013
 20
2.71718
  0
VERTEX
  8
0
 10
-7.02635
 20
2.71943
  0
VERTEX
  8
0
 10
-7.01272
 20
2.72116
  0
VERTEX
  8
0
 10
-6.99928
 20
2.72241
  0
VERTEX
  8
0
 10
-6.986
 20
2.72316
  0
VERTEX
  8
0
 10
-6.97292
 20
2.72342
  0
VERTEX
  8
0
 10
-6.96237
 20
2.72324
  0
VERTEX
  8
0
 10
-6.95213
 20
2.72273
  0
VERTEX
  8
0
 10
-6.94216
 20
2.72188
  0
VERTEX
  8
0
 10
-6.93249
 20
2.72071
  0
VERTEX
  8
0
 10
-6.92308
 20
2.71918
  0
VERTEX
  8
0
 10
-6.91396
 20
2.71733
  0
VERTEX
  8
0
 10
-6.90511
 20
2.71515
  0
VERTEX
  8
0
 10
-6.89655
 20
2.71264
  0
VERTEX
  8
0
 10
-6.88824
 20
2.70978
  0
VERTEX
  8
0
 10
-6.88022
 20
2.70659
  0
VERTEX
  8
0
 10
-6.87246
 20
2.70307
  0
VERTEX
  8
0
 10
-6.865
 20
2.69923
  0
VERTEX
  8
0
 10
-6.85779
 20
2.69504
  0
VERTEX
  8
0
 10
-6.85086
 20
2.69053
  0
VERTEX
  8
0
 10
-6.84419
 20
2.68569
  0
VERTEX
  8
0
 10
-6.83781
 20
2.68054
  0
VERTEX
  8
0
 10
-6.83179
 20
2.67502
  0
VERTEX
  8
0
 10
-6.82616
 20
2.66929
  0
VERTEX
  8
0
 10
-6.82091
 20
2.66333
  0
VERTEX
  8
0
 10
-6.81606
 20
2.65715
  0
VERTEX
  8
0
 10
-6.81158
 20
2.65073
  0
VERTEX
  8
0
 10
-6.80749
 20
2.64408
  0
VERTEX
  8
0
 10
-6.80379
 20
2.63721
  0
VERTEX
  8
0
 10
-6.80049
 20
2.63012
  0
VERTEX
  8
0
 10
-6.79755
 20
2.62278
  0
VERTEX
  8
0
 10
-6.79501
 20
2.61522
  0
VERTEX
  8
0
 10
-6.79286
 20
2.60743
  0
VERTEX
  8
0
 10
-6.79111
 20
2.59942
  0
VERTEX
  8
0
 10
-6.78974
 20
2.59117
  0
VERTEX
  8
0
 10
-6.78877
 20
2.58269
  0
VERTEX
  8
0
 10
-6.78818
 20
2.57398
  0
VERTEX
  8
0
 10
-6.78799
 20
2.56505
  0
VERTEX
  8
0
 10
-6.78808
 20
2.5591
  0
VERTEX
  8
0
 10
-6.78838
 20
2.55325
  0
VERTEX
  8
0
 10
-6.78886
 20
2.54748
  0
VERTEX
  8
0
 10
-6.78956
 20
2.54182
  0
VERTEX
  8
0
 10
-6.79045
 20
2.53623
  0
VERTEX
  8
0
 10
-6.79154
 20
2.53075
  0
VERTEX
  8
0
 10
-6.79283
 20
2.52534
  0
VERTEX
  8
0
 10
-6.79433
 20
2.52004
  0
VERTEX
  8
0
 10
-6.796
 20
2.51481
  0
VERTEX
  8
0
 10
-6.79789
 20
2.50969
  0
VERTEX
  8
0
 10
-6.79996
 20
2.50464
  0
VERTEX
  8
0
 10
-6.80225
 20
2.4997
  0
VERTEX
  8
0
 10
-6.80473
 20
2.49483
  0
VERTEX
  8
0
 10
-6.80741
 20
2.49007
  0
VERTEX
  8
0
 10
-6.81028
 20
2.48539
  0
VERTEX
  8
0
 10
-6.81337
 20
2.48082
  0
VERTEX
  8
0
 10
-6.81658
 20
2.47639
  0
VERTEX
  8
0
 10
-6.81993
 20
2.47218
  0
VERTEX
  8
0
 10
-6.82337
 20
2.46818
  0
VERTEX
  8
0
 10
-6.82694
 20
2.46441
  0
VERTEX
  8
0
 10
-6.8306
 20
2.46083
  0
VERTEX
  8
0
 10
-6.8344
 20
2.45747
  0
VERTEX
  8
0
 10
-6.83828
 20
2.45431
  0
VERTEX
  8
0
 10
-6.8423
 20
2.45138
  0
VERTEX
  8
0
 10
-6.8464
 20
2.44863
  0
VERTEX
  8
0
 10
-6.85063
 20
2.44612
  0
VERTEX
  8
0
 10
-6.85496
 20
2.4438
  0
VERTEX
  8
0
 10
-6.85942
 20
2.44171
  0
VERTEX
  8
0
 10
-6.86396
 20
2.43981
  0
VERTEX
  8
0
 10
-6.86863
 20
2.43815
  0
VERTEX
  8
0
 10
-6.8734
 20
2.43669
  0
VERTEX
  8
0
 10
-6.87761
 20
2.44066
  0
VERTEX
  8
0
 10
-6.87761
 20
2.44066
  0
VERTEX
  8
0
 10
-6.87671
 20
2.44631
  0
VERTEX
  8
0
 10
-6.87589
 20
2.45179
  0
VERTEX
  8
0
 10
-6.87511
 20
2.45705
  0
VERTEX
  8
0
 10
-6.87441
 20
2.46214
  0
VERTEX
  8
0
 10
-6.87374
 20
2.46701
  0
VERTEX
  8
0
 10
-6.87314
 20
2.47171
  0
VERTEX
  8
0
 10
-6.8726
 20
2.4762
  0
VERTEX
  8
0
 10
-6.87212
 20
2.48052
  0
VERTEX
  8
0
 10
-6.87167
 20
2.48461
  0
VERTEX
  8
0
 10
-6.8713
 20
2.48853
  0
VERTEX
  8
0
 10
-6.87097
 20
2.49223
  0
VERTEX
  8
0
 10
-6.87073
 20
2.49576
  0
VERTEX
  8
0
 10
-6.87052
 20
2.49907
  0
VERTEX
  8
0
 10
-6.87037
 20
2.50219
  0
VERTEX
  8
0
 10
-6.87028
 20
2.50511
  0
VERTEX
  8
0
 10
-6.87027
 20
2.50785
  0
VERTEX
  8
0
 10
-6.87043
 20
2.51813
  0
VERTEX
  8
0
 10
-6.87097
 20
2.5282
  0
VERTEX
  8
0
 10
-6.87184
 20
2.53806
  0
VERTEX
  8
0
 10
-6.87309
 20
2.5477
  0
VERTEX
  8
0
 10
-6.87467
 20
2.55711
  0
VERTEX
  8
0
 10
-6.87662
 20
2.56631
  0
VERTEX
  8
0
 10
-6.87891
 20
2.57528
  0
VERTEX
  8
0
 10
-6.88158
 20
2.58405
  0
VERTEX
  8
0
 10
-6.88457
 20
2.59257
  0
VERTEX
  8
0
 10
-6.88793
 20
2.60088
  0
VERTEX
  8
0
 10
-6.89163
 20
2.60896
  0
VERTEX
  8
0
 10
-6.89571
 20
2.61683
  0
VERTEX
  8
0
 10
-6.90012
 20
2.62446
  0
VERTEX
  8
0
 10
-6.9049
 20
2.63187
  0
VERTEX
  8
0
 10
-6.91002
 20
2.63906
  0
VERTEX
  8
0
 10
-6.91551
 20
2.64602
  0
VERTEX
  8
0
 10
-6.92124
 20
2.65265
  0
VERTEX
  8
0
 10
-6.92717
 20
2.65886
  0
VERTEX
  8
0
 10
-6.93326
 20
2.66462
  0
VERTEX
  8
0
 10
-6.93955
 20
2.66997
  0
VERTEX
  8
0
 10
-6.946
 20
2.67487
  0
VERTEX
  8
0
 10
-6.95263
 20
2.67936
  0
VERTEX
  8
0
 10
-6.95944
 20
2.6834
  0
VERTEX
  8
0
 10
-6.96644
 20
2.68703
  0
VERTEX
  8
0
 10
-6.9736
 20
2.69021
  0
VERTEX
  8
0
 10
-6.98095
 20
2.69297
  0
VERTEX
  8
0
 10
-6.98848
 20
2.6953
  0
VERTEX
  8
0
 10
-6.99619
 20
2.69722
  0
VERTEX
  8
0
 10
-7.00408
 20
2.69869
  0
VERTEX
  8
0
 10
-7.01215
 20
2.69976
  0
VERTEX
  8
0
 10
-7.0204
 20
2.70039
  0
VERTEX
  8
0
 10
-7.02886
 20
2.70062
  0
VERTEX
  8
0
 10
-7.04361
 20
2.69999
  0
VERTEX
  8
0
 10
-7.05859
 20
2.69813
  0
VERTEX
  8
0
 10
-7.07377
 20
2.69503
  0
VERTEX
  8
0
 10
-7.08917
 20
2.6907
  0
VERTEX
  8
0
 10
-7.10476
 20
2.68512
  0
VERTEX
  8
0
 10
-7.12058
 20
2.67832
  0
VERTEX
  8
0
 10
-7.13659
 20
2.67027
  0
VERTEX
  8
0
 10
-7.15283
 20
2.66101
  0
VERTEX
  8
0
 10
-7.16926
 20
2.65048
  0
VERTEX
  8
0
 10
-7.18592
 20
2.63873
  0
VERTEX
  8
0
 10
-7.20277
 20
2.62575
  0
VERTEX
  8
0
 10
-7.21985
 20
2.61154
  0
VERTEX
  8
0
 10
-7.23712
 20
2.59608
  0
VERTEX
  8
0
 10
-7.25463
 20
2.57941
  0
VERTEX
  8
0
 10
-7.27234
 20
2.5615
  0
VERTEX
  8
0
 10
-7.29028
 20
2.54237
  0
VERTEX
  8
0
 10
-7.30828
 20
2.52209
  0
VERTEX
  8
0
 10
-7.32623
 20
2.50088
  0
VERTEX
  8
0
 10
-7.34411
 20
2.47871
  0
VERTEX
  8
0
 10
-7.36193
 20
2.45559
  0
VERTEX
  8
0
 10
-7.37966
 20
2.4315
  0
VERTEX
  8
0
 10
-7.39735
 20
2.40647
  0
VERTEX
  8
0
 10
-7.41496
 20
2.38046
  0
VERTEX
  8
0
 10
-7.43252
 20
2.35352
  0
VERTEX
  8
0
 10
-7.44998
 20
2.32559
  0
VERTEX
  8
0
 10
-7.46741
 20
2.29673
  0
VERTEX
  8
0
 10
-7.48475
 20
2.26688
  0
VERTEX
  8
0
 10
-7.50205
 20
2.2361
  0
VERTEX
  8
0
 10
-7.51925
 20
2.20433
  0
VERTEX
  8
0
 10
-7.53641
 20
2.17162
  0
VERTEX
  8
0
 10
-7.55348
 20
2.13793
  0
VERTEX
  8
0
 10
-7.56525
 20
2.09995
  0
SEQEND
  8
0
  0
POLYLINE
  8
0
 66
     1
  0
VERTEX
  8
0
 10
-8.50593
 20
0.68592
  0
VERTEX
  8
0
 10
-8.50593
 20
0.68592
  0
VERTEX
  8
0
 10
-8.50684
 20
0.68414
  0
VERTEX
  8
0
 10
-8.50781
 20
0.68231
  0
VERTEX
  8
0
 10
-8.5088
 20
0.68041
  0
VERTEX
  8
0
 10
-8.50984
 20
0.67846
  0
VERTEX
  8
0
 10
-8.5109
 20
0.67642
  0
VERTEX
  8
0
 10
-8.51202
 20
0.67433
  0
VERTEX
  8
0
 10
-8.51317
 20
0.67217
  0
VERTEX
  8
0
 10
-8.51438
 20
0.66995
  0
VERTEX
  8
0
 10
-8.51559
 20
0.66764
  0
VERTEX
  8
0
 10
-8.51687
 20
0.66529
  0
VERTEX
  8
0
 10
-8.51817
 20
0.66286
  0
VERTEX
  8
0
 10
-8.51954
 20
0.66038
  0
VERTEX
  8
0
 10
-8.52092
 20
0.65781
  0
VERTEX
  8
0
 10
-8.52236
 20
0.6552
  0
VERTEX
  8
0
 10
-8.52383
 20
0.6525
  0
VERTEX
  8
0
 10
-8.52536
 20
0.64977
  0
VERTEX
  8
0
 10
-8.52894
 20
0.64302
  0
VERTEX
  8
0
 10
-8.53244
 20
0.63672
  0
VERTEX
  8
0
 10
-8.53585
 20
0.63085
  0
VERTEX
  8
0
 10
-8.53918
 20
0.62543
  0
VERTEX
  8
0
 10
-8.5424
 20
0.62044
  0
VERTEX
  8
0
 10
-8.54553
 20
0.61589
  0
VERTEX
  8
0
 10
-8.54857
 20
0.61177
  0
VERTEX
  8
0
 10
-8.55152
 20
0.60811
  0
VERTEX
  8
0
 10
-8.55436
 20
0.60486
  0
VERTEX
  8
0
 10
-8.55711
 20
0.60205
  0
VERTEX
  8
0
 10
-8.55976
 20
0.59968
  0
VERTEX
  8
0
 10
-8.56232
 20
0.59775
  0
VERTEX
  8
0
 10
-8.56477
 20
0.59624
  0
VERTEX
  8
0
 10
-8.56713
 20
0.59516
  0
VERTEX
  8
0
 10
-8.56938
 20
0.59452
  0
VERTEX
  8
0
 10
-8.57155
 20
0.59431
  0
VERTEX
  8
0
 10
-8.5725
 20
0.59436
  0
VERTEX
  8
0
 10
-8.57344
 20
0.59447
  0
VERTEX
  8
0
 10
-8.57435
 20
0.59462
  0
VERTEX
  8
0
 10
-8.57523
 20
0.59483
  0
VERTEX
  8
0
 10
-8.57606
 20
0.59506
  0
VERTEX
  8
0
 10
-8.57687
 20
0.59535
  0
VERTEX
  8
0
 10
-8.57764
 20
0.59568
  0
VERTEX
  8
0
 10
-8.5784
 20
0.59606
  0
VERTEX
  8
0
 10
-8.5791
 20
0.59646
  0
VERTEX
  8
0
 10
-8.57978
 20
0.59691
  0
VERTEX
  8
0
 10
-8.58043
 20
0.59738
  0
VERTEX
  8
0
 10
-8.58106
 20
0.5979
  0
VERTEX
  8
0
 10
-8.58163
 20
0.59844
  0
VERTEX
  8
0
 10
-8.58218
 20
0.59902
  0
VERTEX
  8
0
 10
-8.5827
 20
0.59963
  0
VERTEX
  8
0
 10
-8.5832
 20
0.60028
  0
VERTEX
  8
0
 10
-8.58364
 20
0.60099
  0
VERTEX
  8
0
 10
-8.58406
 20
0.60174
  0
VERTEX
  8
0
 10
-8.58444
 20
0.60251
  0
VERTEX
  8
0
 10
-8.58481
 20
0.60333
  0
VERTEX
  8
0
 10
-8.58513
 20
0.60415
  0
VERTEX
  8
0
 10
-8.58544
 20
0.60501
  0
VERTEX
  8
0
 10
-8.5857
 20
0.6059
  0
VERTEX
  8
0
 10
-8.58595
 20
0.60683
  0
VERTEX
  8
0
 10
-8.58615
 20
0.60777
  0
VERTEX
  8
0
 10
-8.58634
 20
0.60875
  0
VERTEX
  8
0
 10
-8.58648
 20
0.60975
  0
VERTEX
  8
0
 10
-8.58661
 20
0.61079
  0
VERTEX
  8
0
 10
-8.58669
 20
0.61185
  0
VERTEX
  8
0
 10
-8.58677
 20
0.61295
  0
VERTEX
  8
0
 10
-8.58681
 20
0.61408
  0
VERTEX
  8
0
 10
-8.58683
 20
0.61526
  0
VERTEX
  8
0
 10
-8.58655
 20
0.61829
  0
VERTEX
  8
0
 10
-8.58574
 20
0.62157
  0
VERTEX
  8
0
 10
-8.58439
 20
0.62511
  0
VERTEX
  8
0
 10
-8.5825
 20
0.62892
  0
VERTEX
  8
0
 10
-8.58007
 20
0.63297
  0
VERTEX
  8
0
 10
-8.5771
 20
0.63727
  0
VERTEX
  8
0
 10
-8.57359
 20
0.64183
  0
VERTEX
  8
0
 10
-8.56955
 20
0.64666
  0
VERTEX
  8
0
 10
-8.56496
 20
0.65172
  0
VERTEX
  8
0
 10
-8.55984
 20
0.65704
  0
VERTEX
  8
0
 10
-8.55417
 20
0.66261
  0
VERTEX
  8
0
 10
-8.54799
 20
0.66844
  0
VERTEX
  8
0
 10
-8.54125
 20
0.67451
  0
VERTEX
  8
0
 10
-8.53399
 20
0.68084
  0
VERTEX
  8
0
 10
-8.52619
 20
0.68743
  0
VERTEX
  8
0
 10
-8.51785
 20
0.69427
  0
VERTEX
  8
0
 10
-8.50896
 20
0.70132
  0
VERTEX
  8
0
 10
-8.49955
 20
0.70861
  0
VERTEX
  8
0
 10
-8.48962
 20
0.71614
  0
VERTEX
  8
0
 10
-8.47917
 20
0.72391
  0
VERTEX
  8
0
 10
-8.46818
 20
0.7319
  0
VERTEX
  8
0
 10
-8.45667
 20
0.74015
  0
VERTEX
  8
0
 10
-8.44463
 20
0.74863
  0
VERTEX
  8
0
 10
-8.43207
 20
0.75736
  0
VERTEX
  8
0
 10
-8.41896
 20
0.7663
  0
VERTEX
  8
0
 10
-8.40532
 20
0.77548
  0
VERTEX
  8
0
 10
-8.39116
 20
0.7849
  0
VERTEX
  8
0
 10
-8.37647
 20
0.79458
  0
VERTEX
  8
0
 10
-8.36124
 20
0.80446
  0
VERTEX
  8
0
 10
-8.34549
 20
0.8146
  0
VERTEX
  8
0
 10
-8.3292
 20
0.82498
  0
VERTEX
  8
0
 10
-8.31238
 20
0.8356
  0
VERTEX
  8
0
 10
-8.30919
 20
0.83762
  0
VERTEX
  8
0
 10
-8.30583
 20
0.83977
  0
VERTEX
  8
0
 10
-8.30227
 20
0.84201
  0
VERTEX
  8
0
 10
-8.29854
 20
0.84437
  0
VERTEX
  8
0
 10
-8.2946
 20
0.8468
  0
VERTEX
  8
0
 10
-8.29049
 20
0.84935
  0
VERTEX
  8
0
 10
-8.28617
 20
0.85199
  0
VERTEX
  8
0
 10
-8.28168
 20
0.85474
  0
VERTEX
  8
0
 10
-8.27697
 20
0.85757
  0
VERTEX
  8
0
 10
-8.2721
 20
0.8605
  0
VERTEX
  8
0
 10
-8.26701
 20
0.86352
  0
VERTEX
  8
0
 10
-8.26176
 20
0.86666
  0
VERTEX
  8
0
 10
-8.2563
 20
0.86987
  0
VERTEX
  8
0
 10
-8.25066
 20
0.87319
  0
VERTEX
  8
0
 10
-8.24482
 20
0.87659
  0
VERTEX
  8
0
 10
-8.23882
 20
0.8801
  0
VERTEX
  8
0
 10
-8.22408
 20
0.88872
  0
VERTEX
  8
0
 10
-8.20992
 20
0.89718
  0
VERTEX
  8
0
 10
-8.1963
 20
0.90546
  0
VERTEX
  8
0
 10
-8.18325
 20
0.91356
  0
VERTEX
  8
0
 10
-8.17074
 20
0.92146
  0
VERTEX
  8
0
 10
-8.15881
 20
0.9292
  0
VERTEX
  8
0
 10
-8.14743
 20
0.93675
  0
VERTEX
  8
0
 10
-8.13661
 20
0.94413
  0
VERTEX
  8
0
 10
-8.12632
 20
0.9513
  0
VERTEX
  8
0
 10
-8.1166
 20
0.9583
  0
VERTEX
  8
0
 10
-8.10744
 20
0.96511
  0
VERTEX
  8
0
 10
-8.09884
 20
0.97176
  0
VERTEX
  8
0
 10
-8.09078
 20
0.9782
  0
VERTEX
  8
0
 10
-8.08328
 20
0.98447
  0
VERTEX
  8
0
 10
-8.07634
 20
0.99055
  0
VERTEX
  8
0
 10
-8.06995
 20
0.99646
  0
VERTEX
  8
0
 10
-8.06267
 20
1.00346
  0
VERTEX
  8
0
 10
-8.05561
 20
1.01059
  0
VERTEX
  8
0
 10
-8.04876
 20
1.01782
  0
VERTEX
  8
0
 10
-8.04214
 20
1.02519
  0
VERTEX
  8
0
 10
-8.03572
 20
1.03265
  0
VERTEX
  8
0
 10
-8.02953
 20
1.04024
  0
VERTEX
  8
0
 10
-8.02354
 20
1.04794
  0
VERTEX
  8
0
 10
-8.01778
 20
1.05577
  0
VERTEX
  8
0
 10
-8.01221
 20
1.06369
  0
VERTEX
  8
0
 10
-8.00686
 20
1.07174
  0
VERTEX
  8
0
 10
-8.00172
 20
1.0799
  0
VERTEX
  8
0
 10
-7.99681
 20
1.08821
  0
VERTEX
  8
0
 10
-7.99209
 20
1.09661
  0
VERTEX
  8
0
 10
-7.98759
 20
1.10515
  0
VERTEX
  8
0
 10
-7.98329
 20
1.11379
  0
VERTEX
  8
0
 10
-7.97922
 20
1.12258
  0
VERTEX
  8
0
 10
-7.97535
 20
1.13147
  0
VERTEX
  8
0
 10
-7.97174
 20
1.1404
  0
VERTEX
  8
0
 10
-7.96838
 20
1.14936
  0
VERTEX
  8
0
 10
-7.96528
 20
1.15836
  0
VERTEX
  8
0
 10
-7.96242
 20
1.16737
  0
VERTEX
  8
0
 10
-7.95981
 20
1.17642
  0
VERTEX
  8
0
 10
-7.95746
 20
1.18549
  0
VERTEX
  8
0
 10
-7.95536
 20
1.1946
  0
VERTEX
  8
0
 10
-7.9535
 20
1.20371
  0
VERTEX
  8
0
 10
-7.95189
 20
1.21287
  0
VERTEX
  8
0
 10
-7.95053
 20
1.22204
  0
VERTEX
  8
0
 10
-7.94942
 20
1.23126
  0
VERTEX
  8
0
 10
-7.94855
 20
1.24048
  0
VERTEX
  8
0
 10
-7.94793
 20
1.24974
  0
VERTEX
  8
0
 10
-7.94757
 20
1.25903
  0
VERTEX
  8
0
 10
-7.94745
 20
1.26835
  0
VERTEX
  8
0
 10
-7.94761
 20
1.27909
  0
VERTEX
  8
0
 10
-7.94812
 20
1.2896
  0
VERTEX
  8
0
 10
-7.94895
 20
1.29986
  0
VERTEX
  8
0
 10
-7.95014
 20
1.30991
  0
VERTEX
  8
0
 10
-7.95165
 20
1.31969
  0
VERTEX
  8
0
 10
-7.9535
 20
1.32926
  0
VERTEX
  8
0
 10
-7.95568
 20
1.33859
  0
VERTEX
  8
0
 10
-7.95821
 20
1.34768
  0
VERTEX
  8
0
 10
-7.96105
 20
1.35653
  0
VERTEX
  8
0
 10
-7.96424
 20
1.36514
  0
VERTEX
  8
0
 10
-7.96776
 20
1.37352
  0
VERTEX
  8
0
 10
-7.97162
 20
1.38168
  0
VERTEX
  8
0
 10
-7.9758
 20
1.38959
  0
VERTEX
  8
0
 10
-7.98032
 20
1.39727
  0
VERTEX
  8
0
 10
-7.98516
 20
1.40472
  0
VERTEX
  8
0
 10
-7.99035
 20
1.41195
  0
VERTEX
  8
0
 10
-7.99577
 20
1.41882
  0
VERTEX
  8
0
 10
-8.00137
 20
1.42526
  0
VERTEX
  8
0
 10
-8.00713
 20
1.43125
  0
VERTEX
  8
0
 10
-8.01307
 20
1.43681
  0
VERTEX
  8
0
 10
-8.01914
 20
1.44191
  0
VERTEX
  8
0
 10
-8.0254
 20
1.44658
  0
VERTEX
  8
0
 10
-8.03181
 20
1.4508
  0
VERTEX
  8
0
 10
-8.0384
 20
1.45459
  0
VERTEX
  8
0
 10
-8.04513
 20
1.45791
  0
VERTEX
  8
0
 10
-8.05203
 20
1.46081
  0
VERTEX
  8
0
 10
-8.05909
 20
1.46325
  0
VERTEX
  8
0
 10
-8.06633
 20
1.46526
  0
VERTEX
  8
0
 10
-8.07371
 20
1.46681
  0
VERTEX
  8
0
 10
-8.08127
 20
1.46793
  0
VERTEX
  8
0
 10
-8.08899
 20
1.4686
  0
VERTEX
  8
0
 10
-8.09689
 20
1.46883
  0
VERTEX
  8
0
 10
-8.10383
 20
1.46863
  0
VERTEX
  8
0
 10
-8.11063
 20
1.46805
  0
VERTEX
  8
0
 10
-8.11727
 20
1.46707
  0
VERTEX
  8
0
 10
-8.12379
 20
1.46571
  0
VERTEX
  8
0
 10
-8.13013
 20
1.46395
  0
VERTEX
  8
0
 10
-8.13633
 20
1.46181
  0
VERTEX
  8
0
 10
-8.14238
 20
1.45927
  0
VERTEX
  8
0
 10
-8.1483
 20
1.45635
  0
VERTEX
  8
0
 10
-8.15404
 20
1.45303
  0
VERTEX
  8
0
 10
-8.15964
 20
1.44933
  0
VERTEX
  8
0
 10
-8.16509
 20
1.44523
  0
VERTEX
  8
0
 10
-8.17041
 20
1.44075
  0
VERTEX
  8
0
 10
-8.17555
 20
1.43587
  0
VERTEX
  8
0
 10
-8.18056
 20
1.4306
  0
VERTEX
  8
0
 10
-8.18541
 20
1.42494
  0
VERTEX
  8
0
 10
-8.19013
 20
1.4189
  0
VERTEX
  8
0
 10
-8.19463
 20
1.41248
  0
VERTEX
  8
0
 10
-8.19885
 20
1.40588
  0
VERTEX
  8
0
 10
-8.20278
 20
1.39907
  0
VERTEX
  8
0
 10
-8.20642
 20
1.39208
  0
VERTEX
  8
0
 10
-8.20975
 20
1.38488
  0
VERTEX
  8
0
 10
-8.21281
 20
1.3775
  0
VERTEX
  8
0
 10
-8.21557
 20
1.36991
  0
VERTEX
  8
0
 10
-8.21805
 20
1.36214
  0
VERTEX
  8
0
 10
-8.22022
 20
1.35414
  0
VERTEX
  8
0
 10
-8.22211
 20
1.34597
  0
VERTEX
  8
0
 10
-8.2237
 20
1.3376
  0
VERTEX
  8
0
 10
-8.22501
 20
1.32904
  0
VERTEX
  8
0
 10
-8.22602
 20
1.32026
  0
VERTEX
  8
0
 10
-8.22675
 20
1.31129
  0
VERTEX
  8
0
 10
-8.22719
 20
1.30212
  0
VERTEX
  8
0
 10
-8.22734
 20
1.29278
  0
VERTEX
  8
0
 10
-8.22723
 20
1.28651
  0
VERTEX
  8
0
 10
-8.22695
 20
1.28039
  0
VERTEX
  8
0
 10
-8.22645
 20
1.27439
  0
VERTEX
  8
0
 10
-8.22579
 20
1.26851
  0
VERTEX
  8
0
 10
-8.22492
 20
1.26275
  0
VERTEX
  8
0
 10
-8.22387
 20
1.25711
  0
VERTEX
  8
0
 10
-8.22261
 20
1.25159
  0
VERTEX
  8
0
 10
-8.22118
 20
1.24619
  0
VERTEX
  8
0
 10
-8.21953
 20
1.24091
  0
VERTEX
  8
0
 10
-8.21771
 20
1.23575
  0
VERTEX
  8
0
 10
-8.21568
 20
1.23071
  0
VERTEX
  8
0
 10
-8.21348
 20
1.2258
  0
VERTEX
  8
0
 10
-8.21107
 20
1.221
  0
VERTEX
  8
0
 10
-8.20849
 20
1.21632
  0
VERTEX
  8
0
 10
-8.2057
 20
1.21176
  0
VERTEX
  8
0
 10
-8.20273
 20
1.20735
  0
VERTEX
  8
0
 10
-8.19954
 20
1.20311
  0
VERTEX
  8
0
 10
-8.1963
 20
1.19916
  0
VERTEX
  8
0
 10
-8.19298
 20
1.19547
  0
VERTEX
  8
0
 10
-8.18962
 20
1.19206
  0
VERTEX
  8
0
 10
-8.18617
 20
1.1889
  0
VERTEX
  8
0
 10
-8.18267
 20
1.18603
  0
VERTEX
  8
0
 10
-8.17908
 20
1.18342
  0
VERTEX
  8
0
 10
-8.17545
 20
1.1811
  0
VERTEX
  8
0
 10
-8.17172
 20
1.17902
  0
VERTEX
  8
0
 10
-8.16794
 20
1.17724
  0
VERTEX
  8
0
 10
-8.16407
 20
1.17572
  0
VERTEX
  8
0
 10
-8.16016
 20
1.17449
  0
VERTEX
  8
0
 10
-8.15615
 20
1.17351
  0
VERTEX
  8
0
 10
-8.1521
 20
1.17283
  0
VERTEX
  8
0
 10
-8.14796
 20
1.17242
  0
VERTEX
  8
0
 10
-8.14377
 20
1.17229
  0
VERTEX
  8
0
 10
-8.14193
 20
1.1723
  0
VERTEX
  8
0
 10
-8.14012
 20
1.17239
  0
VERTEX
  8
0
 10
-8.13834
 20
1.17252
  0
VERTEX
  8
0
 10
-8.13659
 20
1.17273
  0
VERTEX
  8
0
 10
-8.13485
 20
1.17297
  0
VERTEX
  8
0
 10
-8.13315
 20
1.17328
  0
VERTEX
  8
0
 10
-8.13146
 20
1.17364
  0
VERTEX
  8
0
 10
-8.12982
 20
1.17409
  0
VERTEX
  8
0
 10
-8.12818
 20
1.17456
  0
VERTEX
  8
0
 10
-8.12657
 20
1.1751
  0
VERTEX
  8
0
 10
-8.12499
 20
1.1757
  0
VERTEX
  8
0
 10
-8.12344
 20
1.17636
  0
VERTEX
  8
0
 10
-8.1219
 20
1.17705
  0
VERTEX
  8
0
 10
-8.12039
 20
1.17783
  0
VERTEX
  8
0
 10
-8.1189
 20
1.17867
  0
VERTEX
  8
0
 10
-8.11744
 20
1.17957
  0
VERTEX
  8
0
 10
-8.11603
 20
1.1805
  0
VERTEX
  8
0
 10
-8.11464
 20
1.18149
  0
VERTEX
  8
0
 10
-8.11326
 20
1.18251
  0
VERTEX
  8
0
 10
-8.11191
 20
1.18361
  0
VERTEX
  8
0
 10
-8.11056
 20
1.18473
  0
VERTEX
  8
0
 10
-8.10924
 20
1.18593
  0
VERTEX
  8
0
 10
-8.10792
 20
1.18716
  0
VERTEX
  8
0
 10
-8.10664
 20
1.18848
  0
VERTEX
  8
0
 10
-8.10535
 20
1.18983
  0
VERTEX
  8
0
 10
-8.10409
 20
1.19124
  0
VERTEX
  8
0
 10
-8.10284
 20
1.19271
  0
VERTEX
  8
0
 10
-8.10162
 20
1.19426
  0
VERTEX
  8
0
 10
-8.10041
 20
1.19585
  0
VERTEX
  8
0
 10
-8.09922
 20
1.19752
  0
VERTEX
  8
0
 10
-8.09804
 20
1.19925
  0
VERTEX
  8
0
 10
-8.09275
 20
1.20106
  0
VERTEX
  8
0
 10
-8.09275
 20
1.20106
  0
VERTEX
  8
0
 10
-8.09336
 20
1.19407
  0
VERTEX
  8
0
 10
-8.09418
 20
1.18726
  0
VERTEX
  8
0
 10
-8.09519
 20
1.18061
  0
VERTEX
  8
0
 10
-8.09643
 20
1.17416
  0
VERTEX
  8
0
 10
-8.09786
 20
1.16786
  0
VERTEX
  8
0
 10
-8.0995
 20
1.16174
  0
VERTEX
  8
0
 10
-8.10134
 20
1.15578
  0
VERTEX
  8
0
 10
-8.1034
 20
1.15002
  0
VERTEX
  8
0
 10
-8.10564
 20
1.1444
  0
VERTEX
  8
0
 10
-8.10811
 20
1.13897
  0
VERTEX
  8
0
 10
-8.11077
 20
1.13369
  0
VERTEX
  8
0
 10
-8.11366
 20
1.12862
  0
VERTEX
  8
0
 10
-8.11674
 20
1.12369
  0
VERTEX
  8
0
 10
-8.12005
 20
1.11895
  0
VERTEX
  8
0
 10
-8.12355
 20
1.11437
  0
VERTEX
  8
0
 10
-8.12728
 20
1.10999
  0
VERTEX
  8
0
 10
-8.13114
 20
1.1058
  0
VERTEX
  8
0
 10
-8.13513
 20
1.10189
  0
VERTEX
  8
0
 10
-8.13921
 20
1.09824
  0
VERTEX
  8
0
 10
-8.14343
 20
1.09487
  0
VERTEX
  8
0
 10
-8.14774
 20
1.09176
  0
VERTEX
  8
0
 10
-8.15218
 20
1.08893
  0
VERTEX
  8
0
 10
-8.15672
 20
1.08637
  0
VERTEX
  8
0
 10
-8.1614
 20
1.08409
  0
VERTEX
  8
0
 10
-8.16616
 20
1.08206
  0
VERTEX
  8
0
 10
-8.17105
 20
1.08031
  0
VERTEX
  8
0
 10
-8.17603
 20
1.07882
  0
VERTEX
  8
0
 10
-8.18116
 20
1.07761
  0
VERTEX
  8
0
 10
-8.18637
 20
1.07666
  0
VERTEX
  8
0
 10
-8.19171
 20
1.07599
  0
VERTEX
  8
0
 10
-8.19715
 20
1.07559
  0
VERTEX
  8
0
 10
-8.20273
 20
1.07547
  0
VERTEX
  8
0
 10
-8.20881
 20
1.07562
  0
VERTEX
  8
0
 10
-8.21477
 20
1.0761
  0
VERTEX
  8
0
 10
-8.22059
 20
1.07688
  0
VERTEX
  8
0
 10
-8.22628
 20
1.078
  0
VERTEX
  8
0
 10
-8.23181
 20
1.07943
  0
VERTEX
  8
0
 10
-8.23721
 20
1.08118
  0
VERTEX
  8
0
 10
-8.24247
 20
1.08325
  0
VERTEX
  8
0
 10
-8.24761
 20
1.08565
  0
VERTEX
  8
0
 10
-8.25258
 20
1.08835
  0
VERTEX
  8
0
 10
-8.25743
 20
1.09138
  0
VERTEX
  8
0
 10
-8.26214
 20
1.09473
  0
VERTEX
  8
0
 10
-8.26672
 20
1.0984
  0
VERTEX
  8
0
 10
-8.27114
 20
1.10238
  0
VERTEX
  8
0
 10
-8.27544
 20
1.1067
  0
VERTEX
  8
0
 10
-8.27959
 20
1.11133
  0
VERTEX
  8
0
 10
-8.28363
 20
1.11629
  0
VERTEX
  8
0
 10
-8.28742
 20
1.12148
  0
VERTEX
  8
0
 10
-8.29099
 20
1.12688
  0
VERTEX
  8
0
 10
-8.2943
 20
1.13243
  0
VERTEX
  8
0
 10
-8.29739
 20
1.13817
  0
VERTEX
  8
0
 10
-8.30021
 20
1.14406
  0
VERTEX
  8
0
 10
-8.3028
 20
1.15015
  0
VERTEX
  8
0
 10
-8.30514
 20
1.15639
  0
VERTEX
  8
0
 10
-8.30724
 20
1.16282
  0
VERTEX
  8
0
 10
-8.30907
 20
1.16939
  0
VERTEX
  8
0
 10
-8.31068
 20
1.17616
  0
VERTEX
  8
0
 10
-8.31203
 20
1.18307
  0
VERTEX
  8
0
 10
-8.31316
 20
1.19018
  0
VERTEX
  8
0
 10
-8.31401
 20
1.19744
  0
VERTEX
  8
0
 10
-8.31464
 20
1.20488
  0
VERTEX
  8
0
 10
-8.315
 20
1.21248
  0
VERTEX
  8
0
 10
-8.31514
 20
1.22027
  0
VERTEX
  8
0
 10
-8.31479
 20
1.23375
  0
VERTEX
  8
0
 10
-8.31379
 20
1.24707
  0
VERTEX
  8
0
 10
-8.31211
 20
1.2602
  0
VERTEX
  8
0
 10
-8.30977
 20
1.27316
  0
VERTEX
  8
0
 10
-8.30674
 20
1.28591
  0
VERTEX
  8
0
 10
-8.30307
 20
1.29851
  0
VERTEX
  8
0
 10
-8.29871
 20
1.31091
  0
VERTEX
  8
0
 10
-8.2937
 20
1.32315
  0
VERTEX
  8
0
 10
-8.28799
 20
1.33518
  0
VERTEX
  8
0
 10
-8.28163
 20
1.34706
  0
VERTEX
  8
0
 10
-8.27459
 20
1.35874
  0
VERTEX
  8
0
 10
-8.2669
 20
1.37026
  0
VERTEX
  8
0
 10
-8.25852
 20
1.38159
  0
VERTEX
  8
0
 10
-8.24949
 20
1.39275
  0
VERTEX
  8
0
 10
-8.23977
 20
1.40373
  0
VERTEX
  8
0
 10
-8.22941
 20
1.41456
  0
VERTEX
  8
0
 10
-8.21855
 20
1.42488
  0
VERTEX
  8
0
 10
-8.20748
 20
1.43455
  0
VERTEX
  8
0
 10
-8.19617
 20
1.44354
  0
VERTEX
  8
0
 10
-8.18462
 20
1.45188
  0
VERTEX
  8
0
 10
-8.17283
 20
1.45953
  0
VERTEX
  8
0
 10
-8.1608
 20
1.46653
  0
VERTEX
  8
0
 10
-8.14853
 20
1.47286
  0
VERTEX
  8
0
 10
-8.13602
 20
1.47854
  0
VERTEX
  8
0
 10
-8.12324
 20
1.48352
  0
VERTEX
  8
0
 10
-8.11025
 20
1.48786
  0
VERTEX
  8
0
 10
-8.09702
 20
1.49152
  0
VERTEX
  8
0
 10
-8.08355
 20
1.49453
  0
VERTEX
  8
0
 10
-8.06981
 20
1.49685
  0
VERTEX
  8
0
 10
-8.05586
 20
1.49853
  0
VERTEX
  8
0
 10
-8.04165
 20
1.49952
  0
VERTEX
  8
0
 10
-8.02722
 20
1.49987
  0
VERTEX
  8
0
 10
-8.01627
 20
1.49961
  0
VERTEX
  8
0
 10
-8.00556
 20
1.49886
  0
VERTEX
  8
0
 10
-7.99509
 20
1.49761
  0
VERTEX
  8
0
 10
-7.98486
 20
1.49588
  0
VERTEX
  8
0
 10
-7.97485
 20
1.49363
  0
VERTEX
  8
0
 10
-7.9651
 20
1.4909
  0
VERTEX
  8
0
 10
-7.95558
 20
1.48767
  0
VERTEX
  8
0
 10
-7.94631
 20
1.48395
  0
VERTEX
  8
0
 10
-7.93725
 20
1.47972
  0
VERTEX
  8
0
 10
-7.92846
 20
1.47501
  0
VERTEX
  8
0
 10
-7.91988
 20
1.46979
  0
VERTEX
  8
0
 10
-7.91157
 20
1.4641
  0
VERTEX
  8
0
 10
-7.90348
 20
1.45789
  0
VERTEX
  8
0
 10
-7.89565
 20
1.45122
  0
VERTEX
  8
0
 10
-7.88806
 20
1.44403
  0
VERTEX
  8
0
 10
-7.88071
 20
1.43638
  0
VERTEX
  8
0
 10
-7.87369
 20
1.42826
  0
VERTEX
  8
0
 10
-7.86714
 20
1.41989
  0
VERTEX
  8
0
 10
-7.86103
 20
1.41125
  0
VERTEX
  8
0
 10
-7.85538
 20
1.40236
  0
VERTEX
  8
0
 10
-7.85017
 20
1.39319
  0
VERTEX
  8
0
 10
-7.84544
 20
1.38377
  0
VERTEX
  8
0
 10
-7.84114
 20
1.37409
  0
VERTEX
  8
0
 10
-7.83731
 20
1.36416
  0
VERTEX
  8
0
 10
-7.83391
 20
1.35394
  0
VERTEX
  8
0
 10
-7.83098
 20
1.34348
  0
VERTEX
  8
0
 10
-7.82849
 20
1.33275
  0
VERTEX
  8
0
 10
-7.82647
 20
1.32177
  0
VERTEX
  8
0
 10
-7.82489
 20
1.3105
  0
VERTEX
  8
0
 10
-7.82377
 20
1.29899
  0
VERTEX
  8
0
 10
-7.82309
 20
1.28721
  0
VERTEX
  8
0
 10
-7.82287
 20
1.27519
  0
VERTEX
  8
0
 10
-7.82315
 20
1.26063
  0
VERTEX
  8
0
 10
-7.82404
 20
1.24628
  0
VERTEX
  8
0
 10
-7.82551
 20
1.23214
  0
VERTEX
  8
0
 10
-7.82758
 20
1.21823
  0
VERTEX
  8
0
 10
-7.83022
 20
1.2045
  0
VERTEX
  8
0
 10
-7.83346
 20
1.19099
  0
VERTEX
  8
0
 10
-7.83728
 20
1.17769
  0
VERTEX
  8
0
 10
-7.84172
 20
1.1646
  0
VERTEX
  8
0
 10
-7.84671
 20
1.15169
  0
VERTEX
  8
0
 10
-7.85232
 20
1.13901
  0
VERTEX
  8
0
 10
-7.8585
 20
1.12652
  0
VERTEX
  8
0
 10
-7.86529
 20
1.11426
  0
VERTEX
  8
0
 10
-7.87264
 20
1.10219
  0
VERTEX
  8
0
 10
-7.88061
 20
1.09033
  0
VERTEX
  8
0
 10
-7.88916
 20
1.07867
  0
VERTEX
  8
0
 10
-7.89832
 20
1.06722
  0
VERTEX
  8
0
 10
-7.908
 20
1.05591
  0
VERTEX
  8
0
 10
-7.91834
 20
1.04478
  0
VERTEX
  8
0
 10
-7.92932
 20
1.03381
  0
VERTEX
  8
0
 10
-7.94095
 20
1.02301
  0
VERTEX
  8
0
 10
-7.9532
 20
1.01236
  0
VERTEX
  8
0
 10
-7.96612
 20
1.00189
  0
VERTEX
  8
0
 10
-7.97966
 20
0.99158
  0
VERTEX
  8
0
 10
-7.99386
 20
0.98144
  0
VERTEX
  8
0
 10
-8.00867
 20
0.97145
  0
VERTEX
  8
0
 10
-8.02414
 20
0.96164
  0
VERTEX
  8
0
 10
-8.04023
 20
0.95198
  0
VERTEX
  8
0
 10
-8.05696
 20
0.94251
  0
VERTEX
  8
0
 10
-8.07431
 20
0.93318
  0
VERTEX
  8
0
 10
-8.09232
 20
0.92405
  0
VERTEX
  8
0
 10
-8.11094
 20
0.91506
  0
VERTEX
  8
0
 10
-8.13021
 20
0.90626
  0
VERTEX
  8
0
 10
-8.14586
 20
0.89916
  0
VERTEX
  8
0
 10
-8.16108
 20
0.89223
  0
VERTEX
  8
0
 10
-8.17584
 20
0.88544
  0
VERTEX
  8
0
 10
-8.19016
 20
0.87882
  0
VERTEX
  8
0
 10
-8.20401
 20
0.87233
  0
VERTEX
  8
0
 10
-8.21741
 20
0.86601
  0
VERTEX
  8
0
 10
-8.23036
 20
0.85984
  0
VERTEX
  8
0
 10
-8.24287
 20
0.85382
  0
VERTEX
  8
0
 10
-8.2549
 20
0.84793
  0
VERTEX
  8
0
 10
-8.26649
 20
0.8422
  0
VERTEX
  8
0
 10
-8.27763
 20
0.83661
  0
VERTEX
  8
0
 10
-8.28832
 20
0.83118
  0
VERTEX
  8
0
 10
-8.29854
 20
0.82587
  0
VERTEX
  8
0
 10
-8.30832
 20
0.82072
  0
VERTEX
  8
0
 10
-8.31764
 20
0.81571
  0
VERTEX
  8
0
 10
-8.32653
 20
0.81085
  0
VERTEX
  8
0
 10
-8.33502
 20
0.80607
  0
VERTEX
  8
0
 10
-8.34327
 20
0.80135
  0
VERTEX
  8
0
 10
-8.35129
 20
0.79665
  0
VERTEX
  8
0
 10
-8.35909
 20
0.79202
  0
VERTEX
  8
0
 10
-8.36664
 20
0.7874
  0
VERTEX
  8
0
 10
-8.37396
 20
0.78284
  0
VERTEX
  8
0
 10
-8.38104
 20
0.77832
  0
VERTEX
  8
0
 10
-8.3879
 20
0.77385
  0
VERTEX
  8
0
 10
-8.3945
 20
0.7694
  0
VERTEX
  8
0
 10
-8.40088
 20
0.76501
  0
VERTEX
  8
0
 10
-8.40701
 20
0.76066
  0
VERTEX
  8
0
 10
-8.41292
 20
0.75637
  0
VERTEX
  8
0
 10
-8.41859
 20
0.75211
  0
VERTEX
  8
0
 10
-8.42402
 20
0.74791
  0
VERTEX
  8
0
 10
-8.42921
 20
0.74374
  0
VERTEX
  8
0
 10
-8.43169
 20
0.7353
  0
VERTEX
  8
0
 10
-8.43169
 20
0.7353
  0
VERTEX
  8
0
 10
-8.42757
 20
0.73708
  0
VERTEX
  8
0
 10
-8.42347
 20
0.73882
  0
VERTEX
  8
0
 10
-8.41938
 20
0.74047
  0
VERTEX
  8
0
 10
-8.41531
 20
0.74209
  0
VERTEX
  8
0
 10
-8.41123
 20
0.74362
  0
VERTEX
  8
0
 10
-8.40718
 20
0.7451
  0
VERTEX
  8
0
 10
-8.40313
 20
0.74651
  0
VERTEX
  8
0
 10
-8.39911
 20
0.74789
  0
VERTEX
  8
0
 10
-8.39508
 20
0.74918
  0
VERTEX
  8
0
 10
-8.39106
 20
0.75041
  0
VERTEX
  8
0
 10
-8.38706
 20
0.75158
  0
VERTEX
  8
0
 10
-8.38307
 20
0.7527
  0
VERTEX
  8
0
 10
-8.37908
 20
0.75375
  0
VERTEX
  8
0
 10
-8.3751
 20
0.75475
  0
VERTEX
  8
0
 10
-8.37114
 20
0.75568
  0
VERTEX
  8
0
 10
-8.3672
 20
0.75658
  0
VERTEX
  8
0
 10
-8.36326
 20
0.75736
  0
VERTEX
  8
0
 10
-8.35934
 20
0.75809
  0
VERTEX
  8
0
 10
-8.35544
 20
0.75878
  0
VERTEX
  8
0
 10
-8.35156
 20
0.75943
  0
VERTEX
  8
0
 10
-8.34768
 20
0.76002
  0
VERTEX
  8
0
 10
-8.34382
 20
0.76056
  0
VERTEX
  8
0
 10
-8.33997
 20
0.76106
  0
VERTEX
  8
0
 10
-8.33613
 20
0.76151
  0
VERTEX
  8
0
 10
-8.33229
 20
0.7619
  0
VERTEX
  8
0
 10
-8.32846
 20
0.76224
  0
VERTEX
  8
0
 10
-8.32465
 20
0.76253
  0
VERTEX
  8
0
 10
-8.32085
 20
0.76277
  0
VERTEX
  8
0
 10
-8.31705
 20
0.76295
  0
VERTEX
  8
0
 10
-8.31327
 20
0.76308
  0
VERTEX
  8
0
 10
-8.30949
 20
0.76317
  0
VERTEX
  8
0
 10
-8.30573
 20
0.7632
  0
VERTEX
  8
0
 10
-8.29974
 20
0.76308
  0
VERTEX
  8
0
 10
-8.29353
 20
0.76275
  0
VERTEX
  8
0
 10
-8.28708
 20
0.7622
  0
VERTEX
  8
0
 10
-8.28042
 20
0.76143
  0
VERTEX
  8
0
 10
-8.27352
 20
0.76043
  0
VERTEX
  8
0
 10
-8.26639
 20
0.75922
  0
VERTEX
  8
0
 10
-8.25903
 20
0.75778
  0
VERTEX
  8
0
 10
-8.25145
 20
0.75614
  0
VERTEX
  8
0
 10
-8.24362
 20
0.75426
  0
VERTEX
  8
0
 10
-8.23558
 20
0.75217
  0
VERTEX
  8
0
 10
-8.22732
 20
0.74986
  0
VERTEX
  8
0
 10
-8.21883
 20
0.74735
  0
VERTEX
  8
0
 10
-8.2101
 20
0.7446
  0
VERTEX
  8
0
 10
-8.20116
 20
0.74164
  0
VERTEX
  8
0
 10
-8.192
 20
0.73847
  0
VERTEX
  8
0
 10
-8.18262
 20
0.73509
  0
VERTEX
  8
0
 10
-8.17321
 20
0.73168
  0
VERTEX
  8
0
 10
-8.16415
 20
0.72851
  0
VERTEX
  8
0
 10
-8.15543
 20
0.72553
  0
VERTEX
  8
0
 10
-8.14706
 20
0.72279
  0
VERTEX
  8
0
 10
-8.139
 20
0.72025
  0
VERTEX
  8
0
 10
-8.1313
 20
0.71794
  0
VERTEX
  8
0
 10
-8.12393
 20
0.71584
  0
VERTEX
  8
0
 10
-8.1169
 20
0.71397
  0
VERTEX
  8
0
 10
-8.11019
 20
0.7123
  0
VERTEX
  8
0
 10
-8.10383
 20
0.71086
  0
VERTEX
  8
0
 10
-8.09779
 20
0.70963
  0
VERTEX
  8
0
 10
-8.0921
 20
0.70864
  0
VERTEX
  8
0
 10
-8.08672
 20
0.70784
  0
VERTEX
  8
0
 10
-8.08169
 20
0.70729
  0
VERTEX
  8
0
 10
-8.07699
 20
0.70696
  0
VERTEX
  8
0
 10
-8.07263
 20
0.70686
  0
VERTEX
  8
0
 10
-8.06571
 20
0.70707
  0
VERTEX
  8
0
 10
-8.05886
 20
0.7077
  0
VERTEX
  8
0
 10
-8.05205
 20
0.70875
  0
VERTEX
  8
0
 10
-8.04531
 20
0.71025
  0
VERTEX
  8
0
 10
-8.0386
 20
0.71216
  0
VERTEX
  8
0
 10
-8.03196
 20
0.7145
  0
VERTEX
  8
0
 10
-8.02536
 20
0.71726
  0
VERTEX
  8
0
 10
-8.01884
 20
0.72045
  0
VERTEX
  8
0
 10
-8.01233
 20
0.72405
  0
VERTEX
  8
0
 10
-8.0059
 20
0.72809
  0
VERTEX
  8
0
 10
-7.99951
 20
0.73255
  0
VERTEX
  8
0
 10
-7.9932
 20
0.73744
  0
VERTEX
  8
0
 10
-7.98691
 20
0.74275
  0
VERTEX
  8
0
 10
-7.9807
 20
0.74848
  0
VERTEX
  8
0
 10
-7.97452
 20
0.75464
  0
VERTEX
  8
0
 10
-7.96843
 20
0.76124
  0
VERTEX
  8
0
 10
-7.9624
 20
0.76822
  0
VERTEX
  8
0
 10
-7.95643
 20
0.77566
  0
VERTEX
  8
0
 10
-7.95049
 20
0.78353
  0
VERTEX
  8
0
 10
-7.94461
 20
0.79185
  0
VERTEX
  8
0
 10
-7.93876
 20
0.8006
  0
VERTEX
  8
0
 10
-7.93297
 20
0.80979
  0
VERTEX
  8
0
 10
-7.92721
 20
0.81941
  0
VERTEX
  8
0
 10
-7.92153
 20
0.82948
  0
VERTEX
  8
0
 10
-7.91586
 20
0.83997
  0
VERTEX
  8
0
 10
-7.91026
 20
0.8509
  0
VERTEX
  8
0
 10
-7.90469
 20
0.86226
  0
VERTEX
  8
0
 10
-7.8992
 20
0.87406
  0
VERTEX
  8
0
 10
-7.89373
 20
0.88629
  0
VERTEX
  8
0
 10
-7.88833
 20
0.89895
  0
VERTEX
  8
0
 10
-7.88297
 20
0.91205
  0
VERTEX
  8
0
 10
-7.86768
 20
0.92069
  0
VERTEX
  8
0
 10
-7.86768
 20
0.92069
  0
VERTEX
  8
0
 10
-7.87511
 20
0.90182
  0
VERTEX
  8
0
 10
-7.88269
 20
0.88349
  0
VERTEX
  8
0
 10
-7.89042
 20
0.8657
  0
VERTEX
  8
0
 10
-7.8983
 20
0.84847
  0
VERTEX
  8
0
 10
-7.90631
 20
0.83176
  0
VERTEX
  8
0
 10
-7.91448
 20
0.81559
  0
VERTEX
  8
0
 10
-7.9228
 20
0.79996
  0
VERTEX
  8
0
 10
-7.93127
 20
0.7849
  0
VERTEX
  8
0
 10
-7.93987
 20
0.77035
  0
VERTEX
  8
0
 10
-7.94863
 20
0.75634
  0
VERTEX
  8
0
 10
-7.95753
 20
0.74287
  0
VERTEX
  8
0
 10
-7.9666
 20
0.72994
  0
VERTEX
  8
0
 10
-7.9758
 20
0.71755
  0
VERTEX
  8
0
 10
-7.98517
 20
0.7057
  0
VERTEX
  8
0
 10
-7.99467
 20
0.69439
  0
VERTEX
  8
0
 10
-8.00434
 20
0.68364
  0
VERTEX
  8
0
 10
-8.01407
 20
0.6735
  0
VERTEX
  8
0
 10
-8.02383
 20
0.66402
  0
VERTEX
  8
0
 10
-8.0336
 20
0.65519
  0
VERTEX
  8
0
 10
-8.04341
 20
0.64703
  0
VERTEX
  8
0
 10
-8.05323
 20
0.6395
  0
VERTEX
  8
0
 10
-8.06308
 20
0.63266
  0
VERTEX
  8
0
 10
-8.07294
 20
0.62645
  0
VERTEX
  8
0
 10
-8.08285
 20
0.62092
  0
VERTEX
  8
0
 10
-8.09276
 20
0.61601
  0
VERTEX
  8
0
 10
-8.1027
 20
0.61178
  0
VERTEX
  8
0
 10
-8.11267
 20
0.60818
  0
VERTEX
  8
0
 10
-8.12267
 20
0.60526
  0
VERTEX
  8
0
 10
-8.13268
 20
0.60297
  0
VERTEX
  8
0
 10
-8.14274
 20
0.60135
  0
VERTEX
  8
0
 10
-8.15281
 20
0.60037
  0
VERTEX
  8
0
 10
-8.16293
 20
0.60006
  0
VERTEX
  8
0
 10
-8.16981
 20
0.60025
  0
VERTEX
  8
0
 10
-8.17701
 20
0.60084
  0
VERTEX
  8
0
 10
-8.18453
 20
0.60182
  0
VERTEX
  8
0
 10
-8.19237
 20
0.60322
  0
VERTEX
  8
0
 10
-8.20051
 20
0.60499
  0
VERTEX
  8
0
 10
-8.20897
 20
0.60717
  0
VERTEX
  8
0
 10
-8.21775
 20
0.60973
  0
VERTEX
  8
0
 10
-8.22685
 20
0.61271
  0
VERTEX
  8
0
 10
-8.23625
 20
0.61605
  0
VERTEX
  8
0
 10
-8.24598
 20
0.61981
  0
VERTEX
  8
0
 10
-8.25602
 20
0.62394
  0
VERTEX
  8
0
 10
-8.26638
 20
0.62848
  0
VERTEX
  8
0
 10
-8.27705
 20
0.63339
  0
VERTEX
  8
0
 10
-8.28804
 20
0.63871
  0
VERTEX
  8
0
 10
-8.29935
 20
0.64442
  0
VERTEX
  8
0
 10
-8.31099
 20
0.65053
  0
VERTEX
  8
0
 10
-8.31435
 20
0.65237
  0
VERTEX
  8
0
 10
-8.31762
 20
0.65417
  0
VERTEX
  8
0
 10
-8.32079
 20
0.65588
  0
VERTEX
  8
0
 10
-8.32385
 20
0.65755
  0
VERTEX
  8
0
 10
-8.32679
 20
0.65912
  0
VERTEX
  8
0
 10
-8.32962
 20
0.66065
  0
VERTEX
  8
0
 10
-8.33235
 20
0.66211
  0
VERTEX
  8
0
 10
-8.33498
 20
0.66352
  0
VERTEX
  8
0
 10
-8.33747
 20
0.66484
  0
VERTEX
  8
0
 10
-8.33987
 20
0.66611
  0
VERTEX
  8
0
 10
-8.34215
 20
0.66731
  0
VERTEX
  8
0
 10
-8.34433
 20
0.66847
  0
VERTEX
  8
0
 10
-8.34639
 20
0.66955
  0
VERTEX
  8
0
 10
-8.34834
 20
0.67057
  0
VERTEX
  8
0
 10
-8.35018
 20
0.67153
  0
VERTEX
  8
0
 10
-8.35192
 20
0.67246
  0
VERTEX
  8
0
 10
-8.35587
 20
0.67441
  0
VERTEX
  8
0
 10
-8.35978
 20
0.67631
  0
VERTEX
  8
0
 10
-8.36365
 20
0.67814
  0
VERTEX
  8
0
 10
-8.36749
 20
0.67994
  0
VERTEX
  8
0
 10
-8.37127
 20
0.68165
  0
VERTEX
  8
0
 10
-8.37502
 20
0.68333
  0
VERTEX
  8
0
 10
-8.37873
 20
0.68493
  0
VERTEX
  8
0
 10
-8.3824
 20
0.68649
  0
VERTEX
  8
0
 10
-8.38602
 20
0.68797
  0
VERTEX
  8
0
 10
-8.3896
 20
0.68941
  0
VERTEX
  8
0
 10
-8.39313
 20
0.69079
  0
VERTEX
  8
0
 10
-8.39663
 20
0.69212
  0
VERTEX
  8
0
 10
-8.40007
 20
0.69338
  0
VERTEX
  8
0
 10
-8.40349
 20
0.6946
  0
VERTEX
  8
0
 10
-8.40685
 20
0.69577
  0
VERTEX
  8
0
 10
-8.41019
 20
0.69688
  0
VERTEX
  8
0
 10
-8.4134
 20
0.69784
  0
VERTEX
  8
0
 10
-8.41658
 20
0.69877
  0
VERTEX
  8
0
 10
-8.41972
 20
0.69964
  0
VERTEX
  8
0
 10
-8.42282
 20
0.70045
  0
VERTEX
  8
0
 10
-8.42585
 20
0.70117
  0
VERTEX
  8
0
 10
-8.42885
 20
0.70186
  0
VERTEX
  8
0
 10
-8.43181
 20
0.70246
  0
VERTEX
  8
0
 10
-8.43473
 20
0.70303
  0
VERTEX
  8
0
 10
-8.43758
 20
0.70351
  0
VERTEX
  8
0
 10
-8.4404
 20
0.70393
  0
VERTEX
  8
0
 10
-8.44317
 20
0.70429
  0
VERTEX
  8
0
 10
-8.44591
 20
0.70459
  0
VERTEX
  8
0
 10
-8.44858
 20
0.70481
  0
VERTEX
  8
0
 10
-8.45122
 20
0.70499
  0
VERTEX
  8
0
 10
-8.45382
 20
0.70508
  0
VERTEX
  8
0
 10
-8.45638
 20
0.70513
  0
VERTEX
  8
0
 10
-8.4582
 20
0.7051
  0
VERTEX
  8
0
 10
-8.45999
 20
0.70505
  0
VERTEX
  8
0
 10
-8.46175
 20
0.70496
  0
VERTEX
  8
0
 10
-8.46348
 20
0.70485
  0
VERTEX
  8
0
 10
-8.46517
 20
0.70469
  0
VERTEX
  8
0
 10
-8.46685
 20
0.7045
  0
VERTEX
  8
0
 10
-8.46849
 20
0.70427
  0
VERTEX
  8
0
 10
-8.47012
 20
0.70402
  0
VERTEX
  8
0
 10
-8.4717
 20
0.70371
  0
VERTEX
  8
0
 10
-8.47327
 20
0.70338
  0
VERTEX
  8
0
 10
-8.4748
 20
0.70301
  0
VERTEX
  8
0
 10
-8.47633
 20
0.7026
  0
VERTEX
  8
0
 10
-8.47781
 20
0.70214
  0
VERTEX
  8
0
 10
-8.47929
 20
0.70166
  0
VERTEX
  8
0
 10
-8.48074
 20
0.70113
  0
VERTEX
  8
0
 10
-8.48219
 20
0.70057
  0
VERTEX
  8
0
 10
-8.48356
 20
0.69995
  0
VERTEX
  8
0
 10
-8.48495
 20
0.6993
  0
VERTEX
  8
0
 10
-8.48636
 20
0.6986
  0
VERTEX
  8
0
 10
-8.4878
 20
0.69787
  0
VERTEX
  8
0
 10
-8.48923
 20
0.69709
  0
VERTEX
  8
0
 10
-8.49068
 20
0.69628
  0
VERTEX
  8
0
 10
-8.49215
 20
0.69543
  0
VERTEX
  8
0
 10
-8.49364
 20
0.69454
  0
VERTEX
  8
0
 10
-8.49512
 20
0.6936
  0
VERTEX
  8
0
 10
-8.49662
 20
0.69262
  0
VERTEX
  8
0
 10
-8.49814
 20
0.6916
  0
VERTEX
  8
0
 10
-8.49968
 20
0.69055
  0
VERTEX
  8
0
 10
-8.50121
 20
0.68944
  0
VERTEX
  8
0
 10
-8.50277
 20
0.68831
  0
VERTEX
  8
0
 10
-8.50434
 20
0.68713
  0
SEQEND
  8
0
  0
POLYLINE
  8
0
 66
     1
  0
VERTEX
  8
0
 10
-7.54435
 20
0.61005
  0
VERTEX
  8
0
 10
-7.38507
 20
0.92753
  0
VERTEX
  8
0
 10
-7.7525
 20
0.92091
  0
VERTEX
  8
0
 10
-7.10242
 20
1.63002
  0
VERTEX
  8
0
 10
-7.02739
 20
1.63175
  0
VERTEX
  8
0
 10
-7.71434
 20
0.93936
  0
VERTEX
  8
0
 10
-7.37566
 20
0.94598
  0
VERTEX
  8
0
 10
-7.37566
 20
0.94598
  0
VERTEX
  8
0
 10
-7.36908
 20
0.95926
  0
VERTEX
  8
0
 10
-7.3625
 20
0.97261
  0
VERTEX
  8
0
 10
-7.3559
 20
0.98604
  0
VERTEX
  8
0
 10
-7.3493
 20
0.99955
  0
VERTEX
  8
0
 10
-7.34265
 20
1.01311
  0
VERTEX
  8
0
 10
-7.33601
 20
1.02676
  0
VERTEX
  8
0
 10
-7.32934
 20
1.04047
  0
VERTEX
  8
0
 10
-7.32267
 20
1.05426
  0
VERTEX
  8
0
 10
-7.31595
 20
1.0681
  0
VERTEX
  8
0
 10
-7.30923
 20
1.08202
  0
VERTEX
  8
0
 10
-7.30249
 20
1.096
  0
VERTEX
  8
0
 10
-7.29574
 20
1.11005
  0
VERTEX
  8
0
 10
-7.28895
 20
1.12415
  0
VERTEX
  8
0
 10
-7.28216
 20
1.13833
  0
VERTEX
  8
0
 10
-7.27534
 20
1.15256
  0
VERTEX
  8
0
 10
-7.26852
 20
1.16687
  0
VERTEX
  8
0
 10
-7.26153
 20
1.18149
  0
VERTEX
  8
0
 10
-7.25433
 20
1.19661
  0
VERTEX
  8
0
 10
-7.24689
 20
1.21223
  0
VERTEX
  8
0
 10
-7.23924
 20
1.22835
  0
VERTEX
  8
0
 10
-7.23135
 20
1.24494
  0
VERTEX
  8
0
 10
-7.22323
 20
1.26204
  0
VERTEX
  8
0
 10
-7.21489
 20
1.27963
  0
VERTEX
  8
0
 10
-7.20634
 20
1.29772
  0
VERTEX
  8
0
 10
-7.19754
 20
1.31629
  0
VERTEX
  8
0
 10
-7.18852
 20
1.33537
  0
VERTEX
  8
0
 10
-7.17928
 20
1.35493
  0
VERTEX
  8
0
 10
-7.16983
 20
1.37501
  0
VERTEX
  8
0
 10
-7.16014
 20
1.39556
  0
VERTEX
  8
0
 10
-7.15024
 20
1.41663
  0
VERTEX
  8
0
 10
-7.14012
 20
1.43819
  0
VERTEX
  8
0
 10
-6.98587
 20
1.48207
  0
VERTEX
  8
0
 10
-6.98587
 20
1.48207
  0
VERTEX
  8
0
 10
-6.99479
 20
1.46503
  0
VERTEX
  8
0
 10
-7.00368
 20
1.44803
  0
VERTEX
  8
0
 10
-7.01253
 20
1.43105
  0
VERTEX
  8
0
 10
-7.02136
 20
1.4141
  0
VERTEX
  8
0
 10
-7.03013
 20
1.39716
  0
VERTEX
  8
0
 10
-7.03887
 20
1.38025
  0
VERTEX
  8
0
 10
-7.04757
 20
1.36335
  0
VERTEX
  8
0
 10
-7.05624
 20
1.34649
  0
VERTEX
  8
0
 10
-7.06485
 20
1.32963
  0
VERTEX
  8
0
 10
-7.07343
 20
1.3128
  0
VERTEX
  8
0
 10
-7.08197
 20
1.29599
  0
VERTEX
  8
0
 10
-7.09048
 20
1.2792
  0
VERTEX
  8
0
 10
-7.09893
 20
1.26242
  0
VERTEX
  8
0
 10
-7.10736
 20
1.24568
  0
VERTEX
  8
0
 10
-7.11574
 20
1.22894
  0
VERTEX
  8
0
 10
-7.12409
 20
1.21224
  0
VERTEX
  8
0
 10
-7.13241
 20
1.19559
  0
VERTEX
  8
0
 10
-7.14071
 20
1.17897
  0
VERTEX
  8
0
 10
-7.14898
 20
1.16235
  0
VERTEX
  8
0
 10
-7.15723
 20
1.14576
  0
VERTEX
  8
0
 10
-7.16543
 20
1.12917
  0
VERTEX
  8
0
 10
-7.17361
 20
1.1126
  0
VERTEX
  8
0
 10
-7.18175
 20
1.09604
  0
VERTEX
  8
0
 10
-7.18987
 20
1.07951
  0
VERTEX
  8
0
 10
-7.19794
 20
1.06297
  0
VERTEX
  8
0
 10
-7.20599
 20
1.04645
  0
VERTEX
  8
0
 10
-7.21401
 20
1.02995
  0
VERTEX
  8
0
 10
-7.22201
 20
1.01346
  0
VERTEX
  8
0
 10
-7.22996
 20
0.99697
  0
VERTEX
  8
0
 10
-7.23789
 20
0.9805
  0
VERTEX
  8
0
 10
-7.24579
 20
0.96405
  0
VERTEX
  8
0
 10
-7.09163
 20
0.9551
  0
VERTEX
  8
0
 10
-7.10691
 20
0.93068
  0
VERTEX
  8
0
 10
-7.263
 20
0.92927
  0
VERTEX
  8
0
 10
-7.39897
 20
0.6285
  0
VERTEX
  8
0
 10
-7.54435
 20
0.61005
  0
SEQEND
  8
0
  0
POLYLINE
  8
0
 66
     1
  0
VERTEX
  8
0
 10
-8.35269
 20
-0.05165
  0
VERTEX
  8
0
 10
-8.35269
 20
-0.05165
  0
VERTEX
  8
0
 10
-8.35395
 20
-0.0507
  0
VERTEX
  8
0
 10
-8.35522
 20
-0.04979
  0
VERTEX
  8
0
 10
-8.35648
 20
-0.0489
  0
VERTEX
  8
0
 10
-8.35776
 20
-0.04806
  0
VERTEX
  8
0
 10
-8.35902
 20
-0.04723
  0
VERTEX
  8
0
 10
-8.36028
 20
-0.04644
  0
VERTEX
  8
0
 10
-8.36154
 20
-0.04568
  0
VERTEX
  8
0
 10
-8.3628
 20
-0.04497
  0
VERTEX
  8
0
 10
-8.36403
 20
-0.04426
  0
VERTEX
  8
0
 10
-8.36529
 20
-0.04359
  0
VERTEX
  8
0
 10
-8.36654
 20
-0.04295
  0
VERTEX
  8
0
 10
-8.3678
 20
-0.04236
  0
VERTEX
  8
0
 10
-8.36903
 20
-0.04178
  0
VERTEX
  8
0
 10
-8.37029
 20
-0.04125
  0
VERTEX
  8
0
 10
-8.37155
 20
-0.04073
  0
VERTEX
  8
0
 10
-8.37281
 20
-0.04026
  0
VERTEX
  8
0
 10
-8.37407
 20
-0.03977
  0
VERTEX
  8
0
 10
-8.37536
 20
-0.03933
  0
VERTEX
  8
0
 10
-8.37664
 20
-0.03892
  0
VERTEX
  8
0
 10
-8.37793
 20
-0.03855
  0
VERTEX
  8
0
 10
-8.37922
 20
-0.0382
  0
VERTEX
  8
0
 10
-8.38051
 20
-0.03789
  0
VERTEX
  8
0
 10
-8.3818
 20
-0.0376
  0
VERTEX
  8
0
 10
-8.38311
 20
-0.03737
  0
VERTEX
  8
0
 10
-8.3844
 20
-0.03714
  0
VERTEX
  8
0
 10
-8.38571
 20
-0.03695
  0
VERTEX
  8
0
 10
-8.38701
 20
-0.03679
  0
VERTEX
  8
0
 10
-8.38833
 20
-0.03668
  0
VERTEX
  8
0
 10
-8.38965
 20
-0.03657
  0
VERTEX
  8
0
 10
-8.39097
 20
-0.0365
  0
VERTEX
  8
0
 10
-8.39229
 20
-0.03646
  0
VERTEX
  8
0
 10
-8.39362
 20
-0.03646
  0
VERTEX
  8
0
 10
-8.39801
 20
-0.03659
  0
VERTEX
  8
0
 10
-8.40236
 20
-0.03703
  0
VERTEX
  8
0
 10
-8.40662
 20
-0.03775
  0
VERTEX
  8
0
 10
-8.41082
 20
-0.03877
  0
VERTEX
  8
0
 10
-8.41493
 20
-0.04006
  0
VERTEX
  8
0
 10
-8.41898
 20
-0.04167
  0
VERTEX
  8
0
 10
-8.42294
 20
-0.04356
  0
VERTEX
  8
0
 10
-8.42684
 20
-0.04576
  0
VERTEX
  8
0
 10
-8.43065
 20
-0.04822
  0
VERTEX
  8
0
 10
-8.4344
 20
-0.05099
  0
VERTEX
  8
0
 10
-8.43806
 20
-0.05405
  0
VERTEX
  8
0
 10
-8.44167
 20
-0.05742
  0
VERTEX
  8
0
 10
-8.44518
 20
-0.06105
  0
VERTEX
  8
0
 10
-8.44865
 20
-0.06501
  0
VERTEX
  8
0
 10
-8.45202
 20
-0.06924
  0
VERTEX
  8
0
 10
-8.45534
 20
-0.0738
  0
VERTEX
  8
0
 10
-8.45848
 20
-0.07855
  0
VERTEX
  8
0
 10
-8.46143
 20
-0.08344
  0
VERTEX
  8
0
 10
-8.46417
 20
-0.08845
  0
VERTEX
  8
0
 10
-8.46671
 20
-0.09359
  0
VERTEX
  8
0
 10
-8.46903
 20
-0.09884
  0
VERTEX
  8
0
 10
-8.47117
 20
-0.10424
  0
VERTEX
  8
0
 10
-8.4731
 20
-0.10976
  0
VERTEX
  8
0
 10
-8.47484
 20
-0.11541
  0
VERTEX
  8
0
 10
-8.47635
 20
-0.12117
  0
VERTEX
  8
0
 10
-8.47767
 20
-0.12707
  0
VERTEX
  8
0
 10
-8.47878
 20
-0.1331
  0
VERTEX
  8
0
 10
-8.4797
 20
-0.13926
  0
VERTEX
  8
0
 10
-8.4804
 20
-0.14554
  0
VERTEX
  8
0
 10
-8.48092
 20
-0.15196
  0
VERTEX
  8
0
 10
-8.48122
 20
-0.1585
  0
VERTEX
  8
0
 10
-8.48133
 20
-0.16519
  0
VERTEX
  8
0
 10
-8.48115
 20
-0.17455
  0
VERTEX
  8
0
 10
-8.48065
 20
-0.18371
  0
VERTEX
  8
0
 10
-8.4798
 20
-0.19265
  0
VERTEX
  8
0
 10
-8.47863
 20
-0.20139
  0
VERTEX
  8
0
 10
-8.4771
 20
-0.2099
  0
VERTEX
  8
0
 10
-8.47525
 20
-0.2182
  0
VERTEX
  8
0
 10
-8.47306
 20
-0.22629
  0
VERTEX
  8
0
 10
-8.47055
 20
-0.23417
  0
VERTEX
  8
0
 10
-8.46768
 20
-0.24182
  0
VERTEX
  8
0
 10
-8.46448
 20
-0.24927
  0
VERTEX
  8
0
 10
-8.46093
 20
-0.25651
  0
VERTEX
  8
0
 10
-8.45706
 20
-0.26355
  0
VERTEX
  8
0
 10
-8.45284
 20
-0.27036
  0
VERTEX
  8
0
 10
-8.44829
 20
-0.27698
  0
VERTEX
  8
0
 10
-8.44339
 20
-0.28338
  0
VERTEX
  8
0
 10
-8.43816
 20
-0.28958
  0
VERTEX
  8
0
 10
-8.43264
 20
-0.29541
  0
VERTEX
  8
0
 10
-8.42696
 20
-0.30089
  0
VERTEX
  8
0
 10
-8.42108
 20
-0.30598
  0
VERTEX
  8
0
 10
-8.41504
 20
-0.31071
  0
VERTEX
  8
0
 10
-8.40878
 20
-0.31504
  0
VERTEX
  8
0
 10
-8.40236
 20
-0.319
  0
VERTEX
  8
0
 10
-8.39575
 20
-0.32258
  0
VERTEX
  8
0
 10
-8.38897
 20
-0.32581
  0
VERTEX
  8
0
 10
-8.38198
 20
-0.32863
  0
VERTEX
  8
0
 10
-8.37481
 20
-0.33108
  0
VERTEX
  8
0
 10
-8.36746
 20
-0.33315
  0
VERTEX
  8
0
 10
-8.35994
 20
-0.33486
  0
VERTEX
  8
0
 10
-8.35221
 20
-0.33616
  0
VERTEX
  8
0
 10
-8.34432
 20
-0.33711
  0
VERTEX
  8
0
 10
-8.33625
 20
-0.33768
  0
VERTEX
  8
0
 10
-8.328
 20
-0.33788
  0
VERTEX
  8
0
 10
-8.31672
 20
-0.33752
  0
VERTEX
  8
0
 10
-8.30564
 20
-0.33648
  0
VERTEX
  8
0
 10
-8.29472
 20
-0.33473
  0
VERTEX
  8
0
 10
-8.28401
 20
-0.33231
  0
VERTEX
  8
0
 10
-8.27345
 20
-0.32918
  0
VERTEX
  8
0
 10
-8.26309
 20
-0.32536
  0
VERTEX
  8
0
 10
-8.25289
 20
-0.32085
  0
VERTEX
  8
0
 10
-8.2429
 20
-0.31566
  0
VERTEX
  8
0
 10
-8.23306
 20
-0.30975
  0
VERTEX
  8
0
 10
-8.22342
 20
-0.30316
  0
VERTEX
  8
0
 10
-8.21395
 20
-0.29588
  0
VERTEX
  8
0
 10
-8.20468
 20
-0.28791
  0
VERTEX
  8
0
 10
-8.19558
 20
-0.27923
  0
VERTEX
  8
0
 10
-8.18667
 20
-0.26988
  0
VERTEX
  8
0
 10
-8.17794
 20
-0.25982
  0
VERTEX
  8
0
 10
-8.16941
 20
-0.24909
  0
VERTEX
  8
0
 10
-8.16122
 20
-0.23786
  0
VERTEX
  8
0
 10
-8.15357
 20
-0.2264
  0
VERTEX
  8
0
 10
-8.14644
 20
-0.21467
  0
VERTEX
  8
0
 10
-8.13986
 20
-0.20271
  0
VERTEX
  8
0
 10
-8.13378
 20
-0.19048
  0
VERTEX
  8
0
 10
-8.12825
 20
-0.17802
  0
VERTEX
  8
0
 10
-8.12322
 20
-0.1653
  0
VERTEX
  8
0
 10
-8.11874
 20
-0.15236
  0
VERTEX
  8
0
 10
-8.11476
 20
-0.13914
  0
VERTEX
  8
0
 10
-8.11133
 20
-0.1257
  0
VERTEX
  8
0
 10
-8.10841
 20
-0.112
  0
VERTEX
  8
0
 10
-8.10604
 20
-0.09808
  0
VERTEX
  8
0
 10
-8.10418
 20
-0.08389
  0
VERTEX
  8
0
 10
-8.10286
 20
-0.06948
  0
VERTEX
  8
0
 10
-8.10206
 20
-0.05481
  0
VERTEX
  8
0
 10
-8.10181
 20
-0.03993
  0
VERTEX
  8
0
 10
-8.10193
 20
-0.0313
  0
VERTEX
  8
0
 10
-8.10232
 20
-0.02293
  0
VERTEX
  8
0
 10
-8.10295
 20
-0.01479
  0
VERTEX
  8
0
 10
-8.10386
 20
-0.0069
  0
VERTEX
  8
0
 10
-8.10502
 20
0.00076
  0
VERTEX
  8
0
 10
-8.10644
 20
0.00819
  0
VERTEX
  8
0
 10
-8.10811
 20
0.01539
  0
VERTEX
  8
0
 10
-8.11005
 20
0.02237
  0
VERTEX
  8
0
 10
-8.11223
 20
0.0291
  0
VERTEX
  8
0
 10
-8.11469
 20
0.03561
  0
VERTEX
  8
0
 10
-8.11739
 20
0.04188
  0
VERTEX
  8
0
 10
-8.12037
 20
0.04793
  0
VERTEX
  8
0
 10
-8.1236
 20
0.05374
  0
VERTEX
  8
0
 10
-8.1271
 20
0.05932
  0
VERTEX
  8
0
 10
-8.13085
 20
0.06468
  0
VERTEX
  8
0
 10
-8.13488
 20
0.06981
  0
VERTEX
  8
0
 10
-8.13913
 20
0.07464
  0
VERTEX
  8
0
 10
-8.14357
 20
0.07917
  0
VERTEX
  8
0
 10
-8.14821
 20
0.08338
  0
VERTEX
  8
0
 10
-8.15305
 20
0.0873
  0
VERTEX
  8
0
 10
-8.15807
 20
0.09088
  0
VERTEX
  8
0
 10
-8.16329
 20
0.09417
  0
VERTEX
  8
0
 10
-8.16871
 20
0.09712
  0
VERTEX
  8
0
 10
-8.17433
 20
0.09979
  0
VERTEX
  8
0
 10
-8.18012
 20
0.10211
  0
VERTEX
  8
0
 10
-8.18613
 20
0.10414
  0
VERTEX
  8
0
 10
-8.19233
 20
0.10585
  0
VERTEX
  8
0
 10
-8.19873
 20
0.10726
  0
VERTEX
  8
0
 10
-8.20532
 20
0.10834
  0
VERTEX
  8
0
 10
-8.21211
 20
0.10912
  0
VERTEX
  8
0
 10
-8.2191
 20
0.10958
  0
VERTEX
  8
0
 10
-8.2263
 20
0.10975
  0
VERTEX
  8
0
 10
-8.22781
 20
0.10973
  0
VERTEX
  8
0
 10
-8.22939
 20
0.10972
  0
VERTEX
  8
0
 10
-8.23101
 20
0.10967
  0
VERTEX
  8
0
 10
-8.23269
 20
0.10964
  0
VERTEX
  8
0
 10
-8.2344
 20
0.10956
  0
VERTEX
  8
0
 10
-8.23617
 20
0.1095
  0
VERTEX
  8
0
 10
-8.23798
 20
0.10941
  0
VERTEX
  8
0
 10
-8.23987
 20
0.10932
  0
VERTEX
  8
0
 10
-8.24178
 20
0.1092
  0
VERTEX
  8
0
 10
-8.24376
 20
0.10908
  0
VERTEX
  8
0
 10
-8.24577
 20
0.10893
  0
VERTEX
  8
0
 10
-8.24786
 20
0.10878
  0
VERTEX
  8
0
 10
-8.24997
 20
0.1086
  0
VERTEX
  8
0
 10
-8.25216
 20
0.10842
  0
VERTEX
  8
0
 10
-8.25438
 20
0.10821
  0
VERTEX
  8
0
 10
-8.25669
 20
0.10801
  0
VERTEX
  8
0
 10
-8.25904
 20
0.10778
  0
VERTEX
  8
0
 10
-8.26149
 20
0.10755
  0
VERTEX
  8
0
 10
-8.26402
 20
0.10728
  0
VERTEX
  8
0
 10
-8.26667
 20
0.107
  0
VERTEX
  8
0
 10
-8.26939
 20
0.10668
  0
VERTEX
  8
0
 10
-8.27222
 20
0.10634
  0
VERTEX
  8
0
 10
-8.27514
 20
0.10597
  0
VERTEX
  8
0
 10
-8.27817
 20
0.10559
  0
VERTEX
  8
0
 10
-8.28127
 20
0.10515
  0
VERTEX
  8
0
 10
-8.28448
 20
0.10471
  0
VERTEX
  8
0
 10
-8.28778
 20
0.10422
  0
VERTEX
  8
0
 10
-8.2912
 20
0.10372
  0
VERTEX
  8
0
 10
-8.29469
 20
0.10317
  0
VERTEX
  8
0
 10
-8.2983
 20
0.10261
  0
VERTEX
  8
0
 10
-8.302
 20
0.10201
  0
VERTEX
  8
0
 10
-8.29925
 20
0.12071
  0
VERTEX
  8
0
 10
-8.29925
 20
0.12071
  0
VERTEX
  8
0
 10
-8.27898
 20
0.12226
  0
VERTEX
  8
0
 10
-8.25935
 20
0.12424
  0
VERTEX
  8
0
 10
-8.24034
 20
0.12666
  0
VERTEX
  8
0
 10
-8.22197
 20
0.12951
  0
VERTEX
  8
0
 10
-8.20422
 20
0.13278
  0
VERTEX
  8
0
 10
-8.18711
 20
0.13648
  0
VERTEX
  8
0
 10
-8.17062
 20
0.1406
  0
VERTEX
  8
0
 10
-8.15478
 20
0.14516
  0
VERTEX
  8
0
 10
-8.13955
 20
0.15013
  0
VERTEX
  8
0
 10
-8.12496
 20
0.15553
  0
VERTEX
  8
0
 10
-8.111
 20
0.16135
  0
VERTEX
  8
0
 10
-8.0977
 20
0.16759
  0
VERTEX
  8
0
 10
-8.08501
 20
0.17425
  0
VERTEX
  8
0
 10
-8.07297
 20
0.18135
  0
VERTEX
  8
0
 10
-8.06155
 20
0.18885
  0
VERTEX
  8
0
 10
-8.05079
 20
0.1968
  0
VERTEX
  8
0
 10
-8.04065
 20
0.20518
  0
VERTEX
  8
0
 10
-8.03117
 20
0.21398
  0
VERTEX
  8
0
 10
-8.02235
 20
0.22316
  0
VERTEX
  8
0
 10
-8.01419
 20
0.23276
  0
VERTEX
  8
0
 10
-8.00667
 20
0.24273
  0
VERTEX
  8
0
 10
-7.99983
 20
0.25313
  0
VERTEX
  8
0
 10
-7.99362
 20
0.26391
  0
VERTEX
  8
0
 10
-7.98809
 20
0.27512
  0
VERTEX
  8
0
 10
-7.98318
 20
0.2867
  0
VERTEX
  8
0
 10
-7.97895
 20
0.2987
  0
VERTEX
  8
0
 10
-7.97535
 20
0.3111
  0
VERTEX
  8
0
 10
-7.97243
 20
0.32392
  0
VERTEX
  8
0
 10
-7.97013
 20
0.33713
  0
VERTEX
  8
0
 10
-7.96851
 20
0.35077
  0
VERTEX
  8
0
 10
-7.96753
 20
0.3648
  0
VERTEX
  8
0
 10
-7.96722
 20
0.37926
  0
VERTEX
  8
0
 10
-7.96734
 20
0.38735
  0
VERTEX
  8
0
 10
-7.96773
 20
0.39528
  0
VERTEX
  8
0
 10
-7.96836
 20
0.40304
  0
VERTEX
  8
0
 10
-7.96926
 20
0.41064
  0
VERTEX
  8
0
 10
-7.9704
 20
0.41807
  0
VERTEX
  8
0
 10
-7.97181
 20
0.42534
  0
VERTEX
  8
0
 10
-7.97348
 20
0.43244
  0
VERTEX
  8
0
 10
-7.9754
 20
0.43938
  0
VERTEX
  8
0
 10
-7.97756
 20
0.44613
  0
VERTEX
  8
0
 10
-7.97999
 20
0.45273
  0
VERTEX
  8
0
 10
-7.98266
 20
0.45915
  0
VERTEX
  8
0
 10
-7.9856
 20
0.46542
  0
VERTEX
  8
0
 10
-7.98878
 20
0.47151
  0
VERTEX
  8
0
 10
-7.99221
 20
0.47743
  0
VERTEX
  8
0
 10
-7.9959
 20
0.48319
  0
VERTEX
  8
0
 10
-7.99985
 20
0.48878
  0
VERTEX
  8
0
 10
-8.00402
 20
0.49403
  0
VERTEX
  8
0
 10
-8.00831
 20
0.49896
  0
VERTEX
  8
0
 10
-8.01272
 20
0.50355
  0
VERTEX
  8
0
 10
-8.01725
 20
0.50781
  0
VERTEX
  8
0
 10
-8.0219
 20
0.51172
  0
VERTEX
  8
0
 10
-8.02667
 20
0.5153
  0
VERTEX
  8
0
 10
-8.03156
 20
0.51854
  0
VERTEX
  8
0
 10
-8.03657
 20
0.52145
  0
VERTEX
  8
0
 10
-8.0417
 20
0.524
  0
VERTEX
  8
0
 10
-8.04695
 20
0.52623
  0
VERTEX
  8
0
 10
-8.05232
 20
0.52811
  0
VERTEX
  8
0
 10
-8.05781
 20
0.52966
  0
VERTEX
  8
0
 10
-8.06342
 20
0.53085
  0
VERTEX
  8
0
 10
-8.06915
 20
0.53172
  0
VERTEX
  8
0
 10
-8.075
 20
0.53223
  0
VERTEX
  8
0
 10
-8.081
 20
0.53241
  0
VERTEX
  8
0
 10
-8.08676
 20
0.53224
  0
VERTEX
  8
0
 10
-8.0924
 20
0.53179
  0
VERTEX
  8
0
 10
-8.09792
 20
0.53103
  0
VERTEX
  8
0
 10
-8.10335
 20
0.52998
  0
VERTEX
  8
0
 10
-8.10863
 20
0.5286
  0
VERTEX
  8
0
 10
-8.1138
 20
0.52695
  0
VERTEX
  8
0
 10
-8.11884
 20
0.52497
  0
VERTEX
  8
0
 10
-8.12377
 20
0.52272
  0
VERTEX
  8
0
 10
-8.12854
 20
0.52014
  0
VERTEX
  8
0
 10
-8.13321
 20
0.51726
  0
VERTEX
  8
0
 10
-8.13774
 20
0.51408
  0
VERTEX
  8
0
 10
-8.14215
 20
0.51061
  0
VERTEX
  8
0
 10
-8.14641
 20
0.50681
  0
VERTEX
  8
0
 10
-8.15055
 20
0.50273
  0
VERTEX
  8
0
 10
-8.15455
 20
0.49834
  0
VERTEX
  8
0
 10
-8.15844
 20
0.49366
  0
VERTEX
  8
0
 10
-8.16216
 20
0.4887
  0
VERTEX
  8
0
 10
-8.16564
 20
0.48361
  0
VERTEX
  8
0
 10
-8.16888
 20
0.47836
  0
VERTEX
  8
0
 10
-8.17191
 20
0.47297
  0
VERTEX
  8
0
 10
-8.17467
 20
0.46741
  0
VERTEX
  8
0
 10
-8.17721
 20
0.4617
  0
VERTEX
  8
0
 10
-8.17949
 20
0.45583
  0
VERTEX
  8
0
 10
-8.18156
 20
0.44982
  0
VERTEX
  8
0
 10
-8.18336
 20
0.44363
  0
VERTEX
  8
0
 10
-8.18492
 20
0.43729
  0
VERTEX
  8
0
 10
-8.18624
 20
0.4308
  0
VERTEX
  8
0
 10
-8.18733
 20
0.42415
  0
VERTEX
  8
0
 10
-8.18817
 20
0.41733
  0
VERTEX
  8
0
 10
-8.18877
 20
0.41037
  0
VERTEX
  8
0
 10
-8.18913
 20
0.40325
  0
VERTEX
  8
0
 10
-8.18927
 20
0.39597
  0
VERTEX
  8
0
 10
-8.18919
 20
0.39053
  0
VERTEX
  8
0
 10
-8.189
 20
0.38522
  0
VERTEX
  8
0
 10
-8.18865
 20
0.38004
  0
VERTEX
  8
0
 10
-8.18819
 20
0.375
  0
VERTEX
  8
0
 10
-8.18757
 20
0.37008
  0
VERTEX
  8
0
 10
-8.18684
 20
0.36528
  0
VERTEX
  8
0
 10
-8.18596
 20
0.36061
  0
VERTEX
  8
0
 10
-8.18496
 20
0.35608
  0
VERTEX
  8
0
 10
-8.1838
 20
0.35166
  0
VERTEX
  8
0
 10
-8.18251
 20
0.34737
  0
VERTEX
  8
0
 10
-8.18108
 20
0.34321
  0
VERTEX
  8
0
 10
-8.17953
 20
0.33919
  0
VERTEX
  8
0
 10
-8.17782
 20
0.33528
  0
VERTEX
  8
0
 10
-8.17599
 20
0.3315
  0
VERTEX
  8
0
 10
-8.17401
 20
0.32785
  0
VERTEX
  8
0
 10
-8.17191
 20
0.32434
  0
VERTEX
  8
0
 10
-8.16967
 20
0.32093
  0
VERTEX
  8
0
 10
-8.16739
 20
0.31777
  0
VERTEX
  8
0
 10
-8.16502
 20
0.31482
  0
VERTEX
  8
0
 10
-8.1626
 20
0.31211
  0
VERTEX
  8
0
 10
-8.16009
 20
0.3096
  0
VERTEX
  8
0
 10
-8.15753
 20
0.30732
  0
VERTEX
  8
0
 10
-8.15488
 20
0.30526
  0
VERTEX
  8
0
 10
-8.15218
 20
0.30344
  0
VERTEX
  8
0
 10
-8.14937
 20
0.3018
  0
VERTEX
  8
0
 10
-8.14652
 20
0.30041
  0
VERTEX
  8
0
 10
-8.14358
 20
0.29922
  0
VERTEX
  8
0
 10
-8.14058
 20
0.29826
  0
VERTEX
  8
0
 10
-8.13749
 20
0.2975
  0
VERTEX
  8
0
 10
-8.13434
 20
0.29697
  0
VERTEX
  8
0
 10
-8.1311
 20
0.29665
  0
VERTEX
  8
0
 10
-8.1278
 20
0.29655
  0
VERTEX
  8
0
 10
-8.12639
 20
0.29656
  0
VERTEX
  8
0
 10
-8.12499
 20
0.29662
  0
VERTEX
  8
0
 10
-8.12361
 20
0.29671
  0
VERTEX
  8
0
 10
-8.12224
 20
0.29686
  0
VERTEX
  8
0
 10
-8.12087
 20
0.29703
  0
VERTEX
  8
0
 10
-8.11952
 20
0.29726
  0
VERTEX
  8
0
 10
-8.11819
 20
0.29751
  0
VERTEX
  8
0
 10
-8.11688
 20
0.29783
  0
VERTEX
  8
0
 10
-8.11556
 20
0.29816
  0
VERTEX
  8
0
 10
-8.11427
 20
0.29854
  0
VERTEX
  8
0
 10
-8.11299
 20
0.29896
  0
VERTEX
  8
0
 10
-8.11173
 20
0.29943
  0
VERTEX
  8
0
 10
-8.11047
 20
0.29992
  0
VERTEX
  8
0
 10
-8.10924
 20
0.30046
  0
VERTEX
  8
0
 10
-8.10801
 20
0.30103
  0
VERTEX
  8
0
 10
-8.10682
 20
0.30165
  0
VERTEX
  8
0
 10
-8.1056
 20
0.30225
  0
VERTEX
  8
0
 10
-8.10439
 20
0.30294
  0
VERTEX
  8
0
 10
-8.10315
 20
0.30367
  0
VERTEX
  8
0
 10
-8.10192
 20
0.30448
  0
VERTEX
  8
0
 10
-8.10066
 20
0.30532
  0
VERTEX
  8
0
 10
-8.09941
 20
0.30624
  0
VERTEX
  8
0
 10
-8.09814
 20
0.3072
  0
VERTEX
  8
0
 10
-8.09688
 20
0.30825
  0
VERTEX
  8
0
 10
-8.09558
 20
0.30931
  0
VERTEX
  8
0
 10
-8.09429
 20
0.31045
  0
VERTEX
  8
0
 10
-8.09299
 20
0.31163
  0
VERTEX
  8
0
 10
-8.0917
 20
0.31289
  0
VERTEX
  8
0
 10
-8.09038
 20
0.31417
  0
VERTEX
  8
0
 10
-8.08907
 20
0.31552
  0
VERTEX
  8
0
 10
-8.08775
 20
0.31691
  0
VERTEX
  8
0
 10
-8.07962
 20
0.31522
  0
VERTEX
  8
0
 10
-8.07962
 20
0.31522
  0
VERTEX
  8
0
 10
-8.08135
 20
0.30946
  0
VERTEX
  8
0
 10
-8.08322
 20
0.30385
  0
VERTEX
  8
0
 10
-8.08522
 20
0.29838
  0
VERTEX
  8
0
 10
-8.08736
 20
0.29306
  0
VERTEX
  8
0
 10
-8.08963
 20
0.28787
  0
VERTEX
  8
0
 10
-8.09204
 20
0.28284
  0
VERTEX
  8
0
 10
-8.09459
 20
0.27794
  0
VERTEX
  8
0
 10
-8.09727
 20
0.27319
  0
VERTEX
  8
0
 10
-8.10007
 20
0.26856
  0
VERTEX
  8
0
 10
-8.10301
 20
0.26409
  0
VERTEX
  8
0
 10
-8.10609
 20
0.25976
  0
VERTEX
  8
0
 10
-8.10931
 20
0.25557
  0
VERTEX
  8
0
 10
-8.11264
 20
0.25151
  0
VERTEX
  8
0
 10
-8.11612
 20
0.24761
  0
VERTEX
  8
0
 10
-8.11973
 20
0.24384
  0
VERTEX
  8
0
 10
-8.12348
 20
0.24022
  0
VERTEX
  8
0
 10
-8.1273
 20
0.23671
  0
VERTEX
  8
0
 10
-8.1312
 20
0.23346
  0
VERTEX
  8
0
 10
-8.13513
 20
0.23041
  0
VERTEX
  8
0
 10
-8.13912
 20
0.22761
  0
VERTEX
  8
0
 10
-8.14314
 20
0.22501
  0
VERTEX
  8
0
 10
-8.14722
 20
0.22266
  0
VERTEX
  8
0
 10
-8.15134
 20
0.22051
  0
VERTEX
  8
0
 10
-8.15553
 20
0.21862
  0
VERTEX
  8
0
 10
-8.15974
 20
0.21692
  0
VERTEX
  8
0
 10
-8.16402
 20
0.21547
  0
VERTEX
  8
0
 10
-8.16832
 20
0.21423
  0
VERTEX
  8
0
 10
-8.1727
 20
0.21323
  0
VERTEX
  8
0
 10
-8.17711
 20
0.21243
  0
VERTEX
  8
0
 10
-8.18158
 20
0.21188
  0
VERTEX
  8
0
 10
-8.18608
 20
0.21155
  0
VERTEX
  8
0
 10
-8.19065
 20
0.21145
  0
VERTEX
  8
0
 10
-8.19554
 20
0.21157
  0
VERTEX
  8
0
 10
-8.20034
 20
0.21194
  0
VERTEX
  8
0
 10
-8.20499
 20
0.21256
  0
VERTEX
  8
0
 10
-8.20955
 20
0.21344
  0
VERTEX
  8
0
 10
-8.21397
 20
0.21455
  0
VERTEX
  8
0
 10
-8.21829
 20
0.21592
  0
VERTEX
  8
0
 10
-8.22249
 20
0.21754
  0
VERTEX
  8
0
 10
-8.22658
 20
0.21942
  0
VERTEX
  8
0
 10
-8.23054
 20
0.22153
  0
VERTEX
  8
0
 10
-8.23439
 20
0.2239
  0
VERTEX
  8
0
 10
-8.23812
 20
0.22651
  0
VERTEX
  8
0
 10
-8.24175
 20
0.22939
  0
VERTEX
  8
0
 10
-8.24526
 20
0.2325
  0
VERTEX
  8
0
 10
-8.24866
 20
0.23587
  0
VERTEX
  8
0
 10
-8.25195
 20
0.23949
  0
VERTEX
  8
0
 10
-8.25514
 20
0.24336
  0
VERTEX
  8
0
 10
-8.25811
 20
0.24747
  0
VERTEX
  8
0
 10
-8.2609
 20
0.25173
  0
VERTEX
  8
0
 10
-8.26349
 20
0.25613
  0
VERTEX
  8
0
 10
-8.26591
 20
0.26068
  0
VERTEX
  8
0
 10
-8.26811
 20
0.26536
  0
VERTEX
  8
0
 10
-8.27015
 20
0.2702
  0
VERTEX
  8
0
 10
-8.27198
 20
0.27519
  0
VERTEX
  8
0
 10
-8.27363
 20
0.28034
  0
VERTEX
  8
0
 10
-8.27507
 20
0.28561
  0
VERTEX
  8
0
 10
-8.27633
 20
0.29105
  0
VERTEX
  8
0
 10
-8.27738
 20
0.29664
  0
VERTEX
  8
0
 10
-8.27827
 20
0.30239
  0
VERTEX
  8
0
 10
-8.27894
 20
0.30828
  0
VERTEX
  8
0
 10
-8.27944
 20
0.31434
  0
VERTEX
  8
0
 10
-8.27972
 20
0.32055
  0
VERTEX
  8
0
 10
-8.27983
 20
0.32694
  0
VERTEX
  8
0
 10
-8.27951
 20
0.33811
  0
VERTEX
  8
0
 10
-8.27861
 20
0.34914
  0
VERTEX
  8
0
 10
-8.27708
 20
0.36001
  0
VERTEX
  8
0
 10
-8.27498
 20
0.37076
  0
VERTEX
  8
0
 10
-8.27224
 20
0.38134
  0
VERTEX
  8
0
 10
-8.26891
 20
0.39179
  0
VERTEX
  8
0
 10
-8.26496
 20
0.40207
  0
VERTEX
  8
0
 10
-8.26043
 20
0.41222
  0
VERTEX
  8
0
 10
-8.25526
 20
0.4222
  0
VERTEX
  8
0
 10
-8.2495
 20
0.43204
  0
VERTEX
  8
0
 10
-8.24312
 20
0.44172
  0
VERTEX
  8
0
 10
-8.23615
 20
0.45127
  0
VERTEX
  8
0
 10
-8.22855
 20
0.46065
  0
VERTEX
  8
0
 10
-8.22036
 20
0.46988
  0
VERTEX
  8
0
 10
-8.21154
 20
0.47896
  0
VERTEX
  8
0
 10
-8.20213
 20
0.48791
  0
VERTEX
  8
0
 10
-8.19234
 20
0.49645
  0
VERTEX
  8
0
 10
-8.18239
 20
0.50446
  0
VERTEX
  8
0
 10
-8.17228
 20
0.5119
  0
VERTEX
  8
0
 10
-8.16202
 20
0.51881
  0
VERTEX
  8
0
 10
-8.15158
 20
0.52515
  0
VERTEX
  8
0
 10
-8.14099
 20
0.53096
  0
VERTEX
  8
0
 10
-8.13023
 20
0.53619
  0
VERTEX
  8
0
 10
-8.11932
 20
0.5409
  0
VERTEX
  8
0
 10
-8.10822
 20
0.54502
  0
VERTEX
  8
0
 10
-8.09698
 20
0.54862
  0
VERTEX
  8
0
 10
-8.08557
 20
0.55165
  0
VERTEX
  8
0
 10
-8.074
 20
0.55414
  0
VERTEX
  8
0
 10
-8.06226
 20
0.55606
  0
VERTEX
  8
0
 10
-8.05037
 20
0.55746
  0
VERTEX
  8
0
 10
-8.03831
 20
0.55828
  0
VERTEX
  8
0
 10
-8.0261
 20
0.55857
  0
VERTEX
  8
0
 10
-8.01656
 20
0.55837
  0
VERTEX
  8
0
 10
-8.00728
 20
0.5578
  0
VERTEX
  8
0
 10
-7.9982
 20
0.55685
  0
VERTEX
  8
0
 10
-7.98938
 20
0.55554
  0
VERTEX
  8
0
 10
-7.98077
 20
0.55383
  0
VERTEX
  8
0
 10
-7.9724
 20
0.55175
  0
VERTEX
  8
0
 10
-7.96424
 20
0.54929
  0
VERTEX
  8
0
 10
-7.95634
 20
0.54646
  0
VERTEX
  8
0
 10
-7.94863
 20
0.54323
  0
VERTEX
  8
0
 10
-7.94118
 20
0.53963
  0
VERTEX
  8
0
 10
-7.93393
 20
0.53563
  0
VERTEX
  8
0
 10
-7.92693
 20
0.53127
  0
VERTEX
  8
0
 10
-7.92013
 20
0.52651
  0
VERTEX
  8
0
 10
-7.91359
 20
0.52137
  0
VERTEX
  8
0
 10
-7.90726
 20
0.51584
  0
VERTEX
  8
0
 10
-7.90117
 20
0.50994
  0
VERTEX
  8
0
 10
-7.89538
 20
0.50379
  0
VERTEX
  8
0
 10
-7.88998
 20
0.49742
  0
VERTEX
  8
0
 10
-7.88494
 20
0.49082
  0
VERTEX
  8
0
 10
-7.88028
 20
0.48399
  0
VERTEX
  8
0
 10
-7.87598
 20
0.47692
  0
VERTEX
  8
0
 10
-7.87205
 20
0.46963
  0
VERTEX
  8
0
 10
-7.8685
 20
0.4621
  0
VERTEX
  8
0
 10
-7.86533
 20
0.45436
  0
VERTEX
  8
0
 10
-7.86251
 20
0.44637
  0
VERTEX
  8
0
 10
-7.86008
 20
0.43816
  0
VERTEX
  8
0
 10
-7.85802
 20
0.42972
  0
VERTEX
  8
0
 10
-7.85634
 20
0.42106
  0
VERTEX
  8
0
 10
-7.85502
 20
0.41216
  0
VERTEX
  8
0
 10
-7.85409
 20
0.40304
  0
VERTEX
  8
0
 10
-7.85352
 20
0.3937
  0
VERTEX
  8
0
 10
-7.85334
 20
0.38414
  0
VERTEX
  8
0
 10
-7.85362
 20
0.37169
  0
VERTEX
  8
0
 10
-7.8545
 20
0.35954
  0
VERTEX
  8
0
 10
-7.85595
 20
0.34769
  0
VERTEX
  8
0
 10
-7.85801
 20
0.33616
  0
VERTEX
  8
0
 10
-7.86063
 20
0.32491
  0
VERTEX
  8
0
 10
-7.86386
 20
0.31399
  0
VERTEX
  8
0
 10
-7.86766
 20
0.30337
  0
VERTEX
  8
0
 10
-7.87207
 20
0.29306
  0
VERTEX
  8
0
 10
-7.87703
 20
0.28304
  0
VERTEX
  8
0
 10
-7.88261
 20
0.27335
  0
VERTEX
  8
0
 10
-7.88876
 20
0.26396
  0
VERTEX
  8
0
 10
-7.89551
 20
0.2549
  0
VERTEX
  8
0
 10
-7.90283
 20
0.24613
  0
VERTEX
  8
0
 10
-7.91076
 20
0.23769
  0
VERTEX
  8
0
 10
-7.91926
 20
0.22956
  0
VERTEX
  8
0
 10
-7.92837
 20
0.22176
  0
VERTEX
  8
0
 10
-7.93805
 20
0.21418
  0
VERTEX
  8
0
 10
-7.9484
 20
0.20686
  0
VERTEX
  8
0
 10
-7.95939
 20
0.19978
  0
VERTEX
  8
0
 10
-7.97105
 20
0.19296
  0
VERTEX
  8
0
 10
-7.98334
 20
0.18638
  0
VERTEX
  8
0
 10
-7.9963
 20
0.18005
  0
VERTEX
  8
0
 10
-8.0099
 20
0.17398
  0
VERTEX
  8
0
 10
-8.02418
 20
0.16816
  0
VERTEX
  8
0
 10
-8.03908
 20
0.16258
  0
VERTEX
  8
0
 10
-8.05465
 20
0.15725
  0
VERTEX
  8
0
 10
-8.07088
 20
0.15218
  0
VERTEX
  8
0
 10
-8.08777
 20
0.14738
  0
VERTEX
  8
0
 10
-8.10529
 20
0.14282
  0
VERTEX
  8
0
 10
-8.1235
 20
0.13853
  0
VERTEX
  8
0
 10
-8.14237
 20
0.13448
  0
VERTEX
  8
0
 10
-8.16328
 20
0.12071
  0
VERTEX
  8
0
 10
-8.16328
 20
0.12071
  0
VERTEX
  8
0
 10
-8.16249
 20
0.1208
  0
VERTEX
  8
0
 10
-8.16171
 20
0.12089
  0
VERTEX
  8
0
 10
-8.16093
 20
0.12098
  0
VERTEX
  8
0
 10
-8.16015
 20
0.12107
  0
VERTEX
  8
0
 10
-8.15935
 20
0.12113
  0
VERTEX
  8
0
 10
-8.15857
 20
0.12122
  0
VERTEX
  8
0
 10
-8.15778
 20
0.12128
  0
VERTEX
  8
0
 10
-8.157
 20
0.12137
  0
VERTEX
  8
0
 10
-8.15619
 20
0.12143
  0
VERTEX
  8
0
 10
-8.15539
 20
0.12149
  0
VERTEX
  8
0
 10
-8.15457
 20
0.12155
  0
VERTEX
  8
0
 10
-8.15376
 20
0.12161
  0
VERTEX
  8
0
 10
-8.15292
 20
0.12164
  0
VERTEX
  8
0
 10
-8.1521
 20
0.1217
  0
VERTEX
  8
0
 10
-8.15126
 20
0.12174
  0
VERTEX
  8
0
 10
-8.15042
 20
0.1218
  0
VERTEX
  8
0
 10
-8.14958
 20
0.12185
  0
VERTEX
  8
0
 10
-8.14868
 20
0.12191
  0
VERTEX
  8
0
 10
-8.14772
 20
0.12197
  0
VERTEX
  8
0
 10
-8.14673
 20
0.12203
  0
VERTEX
  8
0
 10
-8.14567
 20
0.12207
  0
VERTEX
  8
0
 10
-8.14456
 20
0.12213
  0
VERTEX
  8
0
 10
-8.14339
 20
0.12218
  0
VERTEX
  8
0
 10
-8.14217
 20
0.12224
  0
VERTEX
  8
0
 10
-8.14088
 20
0.12227
  0
VERTEX
  8
0
 10
-8.13955
 20
0.12231
  0
VERTEX
  8
0
 10
-8.13816
 20
0.12234
  0
VERTEX
  8
0
 10
-8.13672
 20
0.12238
  0
VERTEX
  8
0
 10
-8.13522
 20
0.12239
  0
VERTEX
  8
0
 10
-8.13366
 20
0.12242
  0
VERTEX
  8
0
 10
-8.13204
 20
0.12243
  0
VERTEX
  8
0
 10
-8.13039
 20
0.12245
  0
VERTEX
  8
0
 10
-8.12164
 20
0.12225
  0
VERTEX
  8
0
 10
-8.11314
 20
0.1217
  0
VERTEX
  8
0
 10
-8.10484
 20
0.12076
  0
VERTEX
  8
0
 10
-8.09679
 20
0.11947
  0
VERTEX
  8
0
 10
-8.08894
 20
0.11779
  0
VERTEX
  8
0
 10
-8.08132
 20
0.11577
  0
VERTEX
  8
0
 10
-8.07392
 20
0.11337
  0
VERTEX
  8
0
 10
-8.06676
 20
0.11061
  0
VERTEX
  8
0
 10
-8.0598
 20
0.10746
  0
VERTEX
  8
0
 10
-8.05308
 20
0.10396
  0
VERTEX
  8
0
 10
-8.04657
 20
0.10009
  0
VERTEX
  8
0
 10
-8.0403
 20
0.09588
  0
VERTEX
  8
0
 10
-8.03424
 20
0.09127
  0
VERTEX
  8
0
 10
-8.02842
 20
0.08632
  0
VERTEX
  8
0
 10
-8.02282
 20
0.08101
  0
VERTEX
  8
0
 10
-8.01746
 20
0.07534
  0
VERTEX
  8
0
 10
-8.01234
 20
0.06931
  0
VERTEX
  8
0
 10
-8.00755
 20
0.06307
  0
VERTEX
  8
0
 10
-8.00309
 20
0.05656
  0
VERTEX
  8
0
 10
-7.99897
 20
0.04983
  0
VERTEX
  8
0
 10
-7.99516
 20
0.04282
  0
VERTEX
  8
0
 10
-7.99169
 20
0.03559
  0
VERTEX
  8
0
 10
-7.98855
 20
0.02811
  0
VERTEX
  8
0
 10
-7.98575
 20
0.0204
  0
VERTEX
  8
0
 10
-7.98325
 20
0.01242
  0
VERTEX
  8
0
 10
-7.9811
 20
0.00421
  0
VERTEX
  8
0
 10
-7.97928
 20
-0.00424
  0
VERTEX
  8
0
 10
-7.9778
 20
-0.01295
  0
VERTEX
  8
0
 10
-7.97664
 20
-0.02189
  0
VERTEX
  8
0
 10
-7.97582
 20
-0.0311
  0
VERTEX
  8
0
 10
-7.97532
 20
-0.04055
  0
VERTEX
  8
0
 10
-7.97516
 20
-0.05024
  0
VERTEX
  8
0
 10
-7.97556
 20
-0.06572
  0
VERTEX
  8
0
 10
-7.9768
 20
-0.08092
  0
VERTEX
  8
0
 10
-7.97885
 20
-0.09583
  0
VERTEX
  8
0
 10
-7.98175
 20
-0.11047
  0
VERTEX
  8
0
 10
-7.98545
 20
-0.1248
  0
VERTEX
  8
0
 10
-7.98998
 20
-0.13885
  0
VERTEX
  8
0
 10
-7.99533
 20
-0.15262
  0
VERTEX
  8
0
 10
-8.00153
 20
-0.1661
  0
VERTEX
  8
0
 10
-8.00851
 20
-0.17927
  0
VERTEX
  8
0
 10
-8.01633
 20
-0.19217
  0
VERTEX
  8
0
 10
-8.02497
 20
-0.20477
  0
VERTEX
  8
0
 10
-8.03444
 20
-0.21709
  0
VERTEX
  8
0
 10
-8.04471
 20
-0.22911
  0
VERTEX
  8
0
 10
-8.05582
 20
-0.24084
  0
VERTEX
  8
0
 10
-8.06774
 20
-0.25227
  0
VERTEX
  8
0
 10
-8.08049
 20
-0.26342
  0
VERTEX
  8
0
 10
-8.09388
 20
-0.27405
  0
VERTEX
  8
0
 10
-8.1077
 20
-0.28402
  0
VERTEX
  8
0
 10
-8.12192
 20
-0.29328
  0
VERTEX
  8
0
 10
-8.13656
 20
-0.30187
  0
VERTEX
  8
0
 10
-8.15159
 20
-0.30976
  0
VERTEX
  8
0
 10
-8.16704
 20
-0.31698
  0
VERTEX
  8
0
 10
-8.18288
 20
-0.3235
  0
VERTEX
  8
0
 10
-8.19915
 20
-0.32935
  0
VERTEX
  8
0
 10
-8.2158
 20
-0.33449
  0
VERTEX
  8
0
 10
-8.23289
 20
-0.33896
  0
VERTEX
  8
0
 10
-8.25036
 20
-0.34273
  0
VERTEX
  8
0
 10
-8.26827
 20
-0.34583
  0
VERTEX
  8
0
 10
-8.28657
 20
-0.34823
  0
VERTEX
  8
0
 10
-8.30529
 20
-0.34996
  0
VERTEX
  8
0
 10
-8.32441
 20
-0.35099
  0
VERTEX
  8
0
 10
-8.34397
 20
-0.35134
  0
VERTEX
  8
0
 10
-8.35801
 20
-0.3511
  0
VERTEX
  8
0
 10
-8.37169
 20
-0.35041
  0
VERTEX
  8
0
 10
-8.38501
 20
-0.34926
  0
VERTEX
  8
0
 10
-8.39797
 20
-0.34766
  0
VERTEX
  8
0
 10
-8.41054
 20
-0.34559
  0
VERTEX
  8
0
 10
-8.42278
 20
-0.34308
  0
VERTEX
  8
0
 10
-8.43465
 20
-0.3401
  0
VERTEX
  8
0
 10
-8.44617
 20
-0.33668
  0
VERTEX
  8
0
 10
-8.4573
 20
-0.33277
  0
VERTEX
  8
0
 10
-8.4681
 20
-0.32842
  0
VERTEX
  8
0
 10
-8.47851
 20
-0.32361
  0
VERTEX
  8
0
 10
-8.48859
 20
-0.31835
  0
VERTEX
  8
0
 10
-8.49828
 20
-0.31262
  0
VERTEX
  8
0
 10
-8.50764
 20
-0.30645
  0
VERTEX
  8
0
 10
-8.51663
 20
-0.29981
  0
VERTEX
  8
0
 10
-8.52527
 20
-0.29273
  0
VERTEX
  8
0
 10
-8.53339
 20
-0.28529
  0
VERTEX
  8
0
 10
-8.54099
 20
-0.27757
  0
VERTEX
  8
0
 10
-8.54806
 20
-0.26952
  0
VERTEX
  8
0
 10
-8.55462
 20
-0.26118
  0
VERTEX
  8
0
 10
-8.56065
 20
-0.25251
  0
VERTEX
  8
0
 10
-8.56617
 20
-0.24357
  0
VERTEX
  8
0
 10
-8.57115
 20
-0.23431
  0
VERTEX
  8
0
 10
-8.57562
 20
-0.22477
  0
VERTEX
  8
0
 10
-8.57955
 20
-0.2149
  0
VERTEX
  8
0
 10
-8.58297
 20
-0.20475
  0
VERTEX
  8
0
 10
-8.58585
 20
-0.19429
  0
VERTEX
  8
0
 10
-8.58822
 20
-0.18355
  0
VERTEX
  8
0
 10
-8.59005
 20
-0.1725
  0
VERTEX
  8
0
 10
-8.59137
 20
-0.16116
  0
VERTEX
  8
0
 10
-8.59217
 20
-0.14953
  0
VERTEX
  8
0
 10
-8.59244
 20
-0.13762
  0
VERTEX
  8
0
 10
-8.59229
 20
-0.12865
  0
VERTEX
  8
0
 10
-8.59185
 20
-0.11987
  0
VERTEX
  8
0
 10
-8.59113
 20
-0.11129
  0
VERTEX
  8
0
 10
-8.59012
 20
-0.10291
  0
VERTEX
  8
0
 10
-8.58881
 20
-0.09471
  0
VERTEX
  8
0
 10
-8.58722
 20
-0.0867
  0
VERTEX
  8
0
 10
-8.58535
 20
-0.07889
  0
VERTEX
  8
0
 10
-8.5832
 20
-0.07128
  0
VERTEX
  8
0
 10
-8.58074
 20
-0.06384
  0
VERTEX
  8
0
 10
-8.57801
 20
-0.05661
  0
VERTEX
  8
0
 10
-8.57499
 20
-0.04956
  0
VERTEX
  8
0
 10
-8.5717
 20
-0.04272
  0
VERTEX
  8
0
 10
-8.5681
 20
-0.03605
  0
VERTEX
  8
0
 10
-8.56424
 20
-0.02958
  0
VERTEX
  8
0
 10
-8.56009
 20
-0.02331
  0
VERTEX
  8
0
 10
-8.55566
 20
-0.01725
  0
VERTEX
  8
0
 10
-8.55094
 20
-0.01144
  0
VERTEX
  8
0
 10
-8.5461
 20
-0.00602
  0
VERTEX
  8
0
 10
-8.5411
 20
-0.00097
  0
VERTEX
  8
0
 10
-8.53596
 20
0.00371
  0
VERTEX
  8
0
 10
-8.53066
 20
0.008
  0
VERTEX
  8
0
 10
-8.52522
 20
0.01195
  0
VERTEX
  8
0
 10
-8.51963
 20
0.0155
  0
VERTEX
  8
0
 10
-8.51391
 20
0.0187
  0
VERTEX
  8
0
 10
-8.50801
 20
0.0215
  0
VERTEX
  8
0
 10
-8.50197
 20
0.02395
  0
VERTEX
  8
0
 10
-8.49578
 20
0.02601
  0
VERTEX
  8
0
 10
-8.48946
 20
0.02771
  0
VERTEX
  8
0
 10
-8.48296
 20
0.02901
  0
VERTEX
  8
0
 10
-8.47632
 20
0.02996
  0
VERTEX
  8
0
 10
-8.46953
 20
0.03053
  0
VERTEX
  8
0
 10
-8.4626
 20
0.03073
  0
VERTEX
  8
0
 10
-8.45807
 20
0.03064
  0
VERTEX
  8
0
 10
-8.45361
 20
0.0304
  0
VERTEX
  8
0
 10
-8.44918
 20
0.03
  0
VERTEX
  8
0
 10
-8.44482
 20
0.02944
  0
VERTEX
  8
0
 10
-8.44048
 20
0.02871
  0
VERTEX
  8
0
 10
-8.4362
 20
0.02783
  0
VERTEX
  8
0
 10
-8.43195
 20
0.02678
  0
VERTEX
  8
0
 10
-8.42777
 20
0.02558
  0
VERTEX
  8
0
 10
-8.4236
 20
0.0242
  0
VERTEX
  8
0
 10
-8.41949
 20
0.02267
  0
VERTEX
  8
0
 10
-8.41542
 20
0.02098
  0
VERTEX
  8
0
 10
-8.4114
 20
0.01913
  0
VERTEX
  8
0
 10
-8.4074
 20
0.01711
  0
VERTEX
  8
0
 10
-8.40346
 20
0.01494
  0
VERTEX
  8
0
 10
-8.39954
 20
0.0126
  0
VERTEX
  8
0
 10
-8.39569
 20
0.01011
  0
VERTEX
  8
0
 10
-8.39186
 20
0.00749
  0
VERTEX
  8
0
 10
-8.38815
 20
0.00476
  0
VERTEX
  8
0
 10
-8.38453
 20
0.00191
  0
VERTEX
  8
0
 10
-8.38104
 20
-0.00106
  0
VERTEX
  8
0
 10
-8.37762
 20
-0.00415
  0
VERTEX
  8
0
 10
-8.37432
 20
-0.00739
  0
VERTEX
  8
0
 10
-8.37112
 20
-0.01075
  0
VERTEX
  8
0
 10
-8.36803
 20
-0.01423
  0
VERTEX
  8
0
 10
-8.36501
 20
-0.01783
  0
VERTEX
  8
0
 10
-8.36212
 20
-0.02155
  0
VERTEX
  8
0
 10
-8.35931
 20
-0.0254
  0
VERTEX
  8
0
 10
-8.35661
 20
-0.02939
  0
VERTEX
  8
0
 10
-8.35399
 20
-0.03349
  0
VERTEX
  8
0
 10
-8.35148
 20
-0.03772
  0
VERTEX
  8
0
 10
-8.34906
 20
-0.04207
  0
VERTEX
  8
0
 10
-8.35269
 20
-0.05165
  0
SEQEND
  8
0
  0
POLYLINE
  8
0
 66
     1
  0
VERTEX
  8
0
 10
-7.8479
 20
-0.26374
  0
VERTEX
  8
0
 10
-7.8479
 20
-0.26374
  0
VERTEX
  8
0
 10
-7.84881
 20
-0.26549
  0
VERTEX
  8
0
 10
-7.84978
 20
-0.26732
  0
VERTEX
  8
0
 10
-7.85077
 20
-0.26921
  0
VERTEX
  8
0
 10
-7.85181
 20
-0.27118
  0
VERTEX
  8
0
 10
-7.85287
 20
-0.2732
  0
VERTEX
  8
0
 10
-7.85399
 20
-0.2753
  0
VERTEX
  8
0
 10
-7.85514
 20
-0.27746
  0
VERTEX
  8
0
 10
-7.85634
 20
-0.27969
  0
VERTEX
  8
0
 10
-7.85755
 20
-0.28197
  0
VERTEX
  8
0
 10
-7.85883
 20
-0.28433
  0
VERTEX
  8
0
 10
-7.86013
 20
-0.28676
  0
VERTEX
  8
0
 10
-7.8615
 20
-0.28925
  0
VERTEX
  8
0
 10
-7.86288
 20
-0.2918
  0
VERTEX
  8
0
 10
-7.86432
 20
-0.29443
  0
VERTEX
  8
0
 10
-7.8658
 20
-0.29713
  0
VERTEX
  8
0
 10
-7.86733
 20
-0.29989
  0
VERTEX
  8
0
 10
-7.87091
 20
-0.30662
  0
VERTEX
  8
0
 10
-7.87441
 20
-0.31292
  0
VERTEX
  8
0
 10
-7.87782
 20
-0.31878
  0
VERTEX
  8
0
 10
-7.88115
 20
-0.32421
  0
VERTEX
  8
0
 10
-7.88437
 20
-0.32918
  0
VERTEX
  8
0
 10
-7.8875
 20
-0.33373
  0
VERTEX
  8
0
 10
-7.89054
 20
-0.33784
  0
VERTEX
  8
0
 10
-7.89349
 20
-0.34153
  0
VERTEX
  8
0
 10
-7.89633
 20
-0.34475
  0
VERTEX
  8
0
 10
-7.89908
 20
-0.34757
  0
VERTEX
  8
0
 10
-7.90172
 20
-0.34994
  0
VERTEX
  8
0
 10
-7.90428
 20
-0.35189
  0
VERTEX
  8
0
 10
-7.90673
 20
-0.35339
  0
VERTEX
  8
0
 10
-7.90909
 20
-0.35448
  0
VERTEX
  8
0
 10
-7.91134
 20
-0.35512
  0
VERTEX
  8
0
 10
-7.91351
 20
-0.35535
  0
VERTEX
  8
0
 10
-7.91446
 20
-0.35528
  0
VERTEX
  8
0
 10
-7.9154
 20
-0.35517
  0
VERTEX
  8
0
 10
-7.91631
 20
-0.35501
  0
VERTEX
  8
0
 10
-7.91719
 20
-0.35481
  0
VERTEX
  8
0
 10
-7.91802
 20
-0.35456
  0
VERTEX
  8
0
 10
-7.91884
 20
-0.35427
  0
VERTEX
  8
0
 10
-7.91961
 20
-0.35394
  0
VERTEX
  8
0
 10
-7.92037
 20
-0.35359
  0
VERTEX
  8
0
 10
-7.92107
 20
-0.35317
  0
VERTEX
  8
0
 10
-7.92175
 20
-0.35273
  0
VERTEX
  8
0
 10
-7.9224
 20
-0.35224
  0
VERTEX
  8
0
 10
-7.92303
 20
-0.35174
  0
VERTEX
  8
0
 10
-7.9236
 20
-0.35119
  0
VERTEX
  8
0
 10
-7.92415
 20
-0.35061
  0
VERTEX
  8
0
 10
-7.92467
 20
-0.35
  0
VERTEX
  8
0
 10
-7.92517
 20
-0.34938
  0
VERTEX
  8
0
 10
-7.92561
 20
-0.34864
  0
VERTEX
  8
0
 10
-7.92603
 20
-0.3479
  0
VERTEX
  8
0
 10
-7.92641
 20
-0.34711
  0
VERTEX
  8
0
 10
-7.92678
 20
-0.34631
  0
VERTEX
  8
0
 10
-7.9271
 20
-0.34547
  0
VERTEX
  8
0
 10
-7.9274
 20
-0.34462
  0
VERTEX
  8
0
 10
-7.92766
 20
-0.34373
  0
VERTEX
  8
0
 10
-7.92791
 20
-0.34282
  0
VERTEX
  8
0
 10
-7.92811
 20
-0.34187
  0
VERTEX
  8
0
 10
-7.9283
 20
-0.3409
  0
VERTEX
  8
0
 10
-7.92844
 20
-0.33989
  0
VERTEX
  8
0
 10
-7.92857
 20
-0.33886
  0
VERTEX
  8
0
 10
-7.92865
 20
-0.33779
  0
VERTEX
  8
0
 10
-7.92873
 20
-0.33669
  0
VERTEX
  8
0
 10
-7.92877
 20
-0.33556
  0
VERTEX
  8
0
 10
-7.92879
 20
-0.33441
  0
VERTEX
  8
0
 10
-7.92851
 20
-0.33135
  0
VERTEX
  8
0
 10
-7.9277
 20
-0.32807
  0
VERTEX
  8
0
 10
-7.92635
 20
-0.32451
  0
VERTEX
  8
0
 10
-7.92446
 20
-0.32072
  0
VERTEX
  8
0
 10
-7.92203
 20
-0.31665
  0
VERTEX
  8
0
 10
-7.91906
 20
-0.31235
  0
VERTEX
  8
0
 10
-7.91555
 20
-0.30779
  0
VERTEX
  8
0
 10
-7.91151
 20
-0.30299
  0
VERTEX
  8
0
 10
-7.90692
 20
-0.29791
  0
VERTEX
  8
0
 10
-7.9018
 20
-0.2926
  0
VERTEX
  8
0
 10
-7.89613
 20
-0.28702
  0
VERTEX
  8
0
 10
-7.88995
 20
-0.2812
  0
VERTEX
  8
0
 10
-7.88321
 20
-0.27511
  0
VERTEX
  8
0
 10
-7.87595
 20
-0.2688
  0
VERTEX
  8
0
 10
-7.86815
 20
-0.26221
  0
VERTEX
  8
0
 10
-7.85981
 20
-0.25539
  0
VERTEX
  8
0
 10
-7.85093
 20
-0.24831
  0
VERTEX
  8
0
 10
-7.84152
 20
-0.24102
  0
VERTEX
  8
0
 10
-7.83159
 20
-0.23349
  0
VERTEX
  8
0
 10
-7.82114
 20
-0.22572
  0
VERTEX
  8
0
 10
-7.81015
 20
-0.21771
  0
VERTEX
  8
0
 10
-7.79864
 20
-0.20948
  0
VERTEX
  8
0
 10
-7.7866
 20
-0.20099
  0
VERTEX
  8
0
 10
-7.77404
 20
-0.19229
  0
VERTEX
  8
0
 10
-7.76093
 20
-0.18332
  0
VERTEX
  8
0
 10
-7.74729
 20
-0.17414
  0
VERTEX
  8
0
 10
-7.73313
 20
-0.16472
  0
VERTEX
  8
0
 10
-7.71844
 20
-0.15506
  0
VERTEX
  8
0
 10
-7.7032
 20
-0.14516
  0
VERTEX
  8
0
 10
-7.68745
 20
-0.13504
  0
VERTEX
  8
0
 10
-7.67116
 20
-0.12466
  0
VERTEX
  8
0
 10
-7.65434
 20
-0.11407
  0
VERTEX
  8
0
 10
-7.65116
 20
-0.11202
  0
VERTEX
  8
0
 10
-7.6478
 20
-0.10987
  0
VERTEX
  8
0
 10
-7.64424
 20
-0.10761
  0
VERTEX
  8
0
 10
-7.64051
 20
-0.10527
  0
VERTEX
  8
0
 10
-7.63657
 20
-0.10282
  0
VERTEX
  8
0
 10
-7.63246
 20
-0.10028
  0
VERTEX
  8
0
 10
-7.62814
 20
-0.09763
  0
VERTEX
  8
0
 10
-7.62365
 20
-0.0949
  0
VERTEX
  8
0
 10
-7.61894
 20
-0.09205
  0
VERTEX
  8
0
 10
-7.61407
 20
-0.08912
  0
VERTEX
  8
0
 10
-7.60898
 20
-0.08608
  0
VERTEX
  8
0
 10
-7.60373
 20
-0.08297
  0
VERTEX
  8
0
 10
-7.59827
 20
-0.07975
  0
VERTEX
  8
0
 10
-7.59263
 20
-0.07644
  0
VERTEX
  8
0
 10
-7.58679
 20
-0.07304
  0
VERTEX
  8
0
 10
-7.58079
 20
-0.06956
  0
VERTEX
  8
0
 10
-7.56605
 20
-0.06092
  0
VERTEX
  8
0
 10
-7.55189
 20
-0.05246
  0
VERTEX
  8
0
 10
-7.53827
 20
-0.04418
  0
VERTEX
  8
0
 10
-7.52522
 20
-0.03608
  0
VERTEX
  8
0
 10
-7.51271
 20
-0.02816
  0
VERTEX
  8
0
 10
-7.50077
 20
-0.02043
  0
VERTEX
  8
0
 10
-7.48939
 20
-0.01287
  0
VERTEX
  8
0
 10
-7.47857
 20
-0.00552
  0
VERTEX
  8
0
 10
-7.46828
 20
0.00166
  0
VERTEX
  8
0
 10
-7.45856
 20
0.00865
  0
VERTEX
  8
0
 10
-7.4494
 20
0.01546
  0
VERTEX
  8
0
 10
-7.4408
 20
0.0221
  0
VERTEX
  8
0
 10
-7.43274
 20
0.02853
  0
VERTEX
  8
0
 10
-7.42524
 20
0.0348
  0
VERTEX
  8
0
 10
-7.4183
 20
0.04088
  0
VERTEX
  8
0
 10
-7.41192
 20
0.04679
  0
VERTEX
  8
0
 10
-7.40463
 20
0.05379
  0
VERTEX
  8
0
 10
-7.39757
 20
0.06092
  0
VERTEX
  8
0
 10
-7.39072
 20
0.06815
  0
VERTEX
  8
0
 10
-7.3841
 20
0.07552
  0
VERTEX
  8
0
 10
-7.37768
 20
0.08298
  0
VERTEX
  8
0
 10
-7.37149
 20
0.09057
  0
VERTEX
  8
0
 10
-7.3655
 20
0.09827
  0
VERTEX
  8
0
 10
-7.35974
 20
0.1061
  0
VERTEX
  8
0
 10
-7.35417
 20
0.11402
  0
VERTEX
  8
0
 10
-7.34882
 20
0.12207
  0
VERTEX
  8
0
 10
-7.34368
 20
0.13023
  0
VERTEX
  8
0
 10
-7.33877
 20
0.13854
  0
VERTEX
  8
0
 10
-7.33405
 20
0.14694
  0
VERTEX
  8
0
 10
-7.32955
 20
0.15549
  0
VERTEX
  8
0
 10
-7.32525
 20
0.16413
  0
VERTEX
  8
0
 10
-7.32118
 20
0.17292
  0
VERTEX
  8
0
 10
-7.31731
 20
0.18181
  0
VERTEX
  8
0
 10
-7.31371
 20
0.19074
  0
VERTEX
  8
0
 10
-7.31035
 20
0.1997
  0
VERTEX
  8
0
 10
-7.30725
 20
0.2087
  0
VERTEX
  8
0
 10
-7.30439
 20
0.21771
  0
VERTEX
  8
0
 10
-7.30178
 20
0.22676
  0
VERTEX
  8
0
 10
-7.29943
 20
0.23583
  0
VERTEX
  8
0
 10
-7.29733
 20
0.24494
  0
VERTEX
  8
0
 10
-7.29546
 20
0.25405
  0
VERTEX
  8
0
 10
-7.29385
 20
0.26321
  0
VERTEX
  8
0
 10
-7.29249
 20
0.27238
  0
VERTEX
  8
0
 10
-7.29138
 20
0.2816
  0
VERTEX
  8
0
 10
-7.29051
 20
0.29082
  0
VERTEX
  8
0
 10
-7.28989
 20
0.30008
  0
VERTEX
  8
0
 10
-7.28953
 20
0.30937
  0
VERTEX
  8
0
 10
-7.28941
 20
0.31869
  0
VERTEX
  8
0
 10
-7.28957
 20
0.32943
  0
VERTEX
  8
0
 10
-7.29008
 20
0.33994
  0
VERTEX
  8
0
 10
-7.29091
 20
0.3502
  0
VERTEX
  8
0
 10
-7.2921
 20
0.36025
  0
VERTEX
  8
0
 10
-7.29361
 20
0.37003
  0
VERTEX
  8
0
 10
-7.29546
 20
0.3796
  0
VERTEX
  8
0
 10
-7.29764
 20
0.38893
  0
VERTEX
  8
0
 10
-7.30017
 20
0.39802
  0
VERTEX
  8
0
 10
-7.30301
 20
0.40687
  0
VERTEX
  8
0
 10
-7.3062
 20
0.41548
  0
VERTEX
  8
0
 10
-7.30972
 20
0.42386
  0
VERTEX
  8
0
 10
-7.31358
 20
0.43202
  0
VERTEX
  8
0
 10
-7.31776
 20
0.43993
  0
VERTEX
  8
0
 10
-7.32228
 20
0.44761
  0
VERTEX
  8
0
 10
-7.32712
 20
0.45506
  0
VERTEX
  8
0
 10
-7.33232
 20
0.46229
  0
VERTEX
  8
0
 10
-7.33774
 20
0.46916
  0
VERTEX
  8
0
 10
-7.34334
 20
0.4756
  0
VERTEX
  8
0
 10
-7.3491
 20
0.48159
  0
VERTEX
  8
0
 10
-7.35504
 20
0.48715
  0
VERTEX
  8
0
 10
-7.36111
 20
0.49225
  0
VERTEX
  8
0
 10
-7.36737
 20
0.49692
  0
VERTEX
  8
0
 10
-7.37378
 20
0.50114
  0
VERTEX
  8
0
 10
-7.38037
 20
0.50493
  0
VERTEX
  8
0
 10
-7.3871
 20
0.50825
  0
VERTEX
  8
0
 10
-7.394
 20
0.51115
  0
VERTEX
  8
0
 10
-7.40106
 20
0.51359
  0
VERTEX
  8
0
 10
-7.4083
 20
0.5156
  0
VERTEX
  8
0
 10
-7.41568
 20
0.51715
  0
VERTEX
  8
0
 10
-7.42324
 20
0.51827
  0
VERTEX
  8
0
 10
-7.43096
 20
0.51894
  0
VERTEX
  8
0
 10
-7.43886
 20
0.51917
  0
VERTEX
  8
0
 10
-7.4458
 20
0.51897
  0
VERTEX
  8
0
 10
-7.4526
 20
0.51839
  0
VERTEX
  8
0
 10
-7.45924
 20
0.51741
  0
VERTEX
  8
0
 10
-7.46575
 20
0.51605
  0
VERTEX
  8
0
 10
-7.47209
 20
0.51429
  0
VERTEX
  8
0
 10
-7.47829
 20
0.51215
  0
VERTEX
  8
0
 10
-7.48434
 20
0.50961
  0
VERTEX
  8
0
 10
-7.49026
 20
0.50669
  0
VERTEX
  8
0
 10
-7.496
 20
0.50337
  0
VERTEX
  8
0
 10
-7.5016
 20
0.49967
  0
VERTEX
  8
0
 10
-7.50705
 20
0.49557
  0
VERTEX
  8
0
 10
-7.51237
 20
0.49109
  0
VERTEX
  8
0
 10
-7.51751
 20
0.48621
  0
VERTEX
  8
0
 10
-7.52253
 20
0.48094
  0
VERTEX
  8
0
 10
-7.52738
 20
0.47528
  0
VERTEX
  8
0
 10
-7.5321
 20
0.46924
  0
VERTEX
  8
0
 10
-7.5366
 20
0.46282
  0
VERTEX
  8
0
 10
-7.54082
 20
0.45622
  0
VERTEX
  8
0
 10
-7.54475
 20
0.44941
  0
VERTEX
  8
0
 10
-7.54839
 20
0.44242
  0
VERTEX
  8
0
 10
-7.55172
 20
0.43522
  0
VERTEX
  8
0
 10
-7.55478
 20
0.42784
  0
VERTEX
  8
0
 10
-7.55754
 20
0.42025
  0
VERTEX
  8
0
 10
-7.56002
 20
0.41248
  0
VERTEX
  8
0
 10
-7.56219
 20
0.40448
  0
VERTEX
  8
0
 10
-7.56408
 20
0.39631
  0
VERTEX
  8
0
 10
-7.56567
 20
0.38794
  0
VERTEX
  8
0
 10
-7.56698
 20
0.37938
  0
VERTEX
  8
0
 10
-7.56799
 20
0.3706
  0
VERTEX
  8
0
 10
-7.56872
 20
0.36163
  0
VERTEX
  8
0
 10
-7.56916
 20
0.35246
  0
VERTEX
  8
0
 10
-7.56931
 20
0.34311
  0
VERTEX
  8
0
 10
-7.5692
 20
0.33685
  0
VERTEX
  8
0
 10
-7.56892
 20
0.33073
  0
VERTEX
  8
0
 10
-7.56842
 20
0.32473
  0
VERTEX
  8
0
 10
-7.56776
 20
0.31885
  0
VERTEX
  8
0
 10
-7.56689
 20
0.31309
  0
VERTEX
  8
0
 10
-7.56584
 20
0.30745
  0
VERTEX
  8
0
 10
-7.56458
 20
0.30193
  0
VERTEX
  8
0
 10
-7.56315
 20
0.29653
  0
VERTEX
  8
0
 10
-7.5615
 20
0.29125
  0
VERTEX
  8
0
 10
-7.55968
 20
0.28609
  0
VERTEX
  8
0
 10
-7.55765
 20
0.28105
  0
VERTEX
  8
0
 10
-7.55545
 20
0.27614
  0
VERTEX
  8
0
 10
-7.55304
 20
0.27134
  0
VERTEX
  8
0
 10
-7.55046
 20
0.26666
  0
VERTEX
  8
0
 10
-7.54767
 20
0.2621
  0
VERTEX
  8
0
 10
-7.5447
 20
0.25769
  0
VERTEX
  8
0
 10
-7.54151
 20
0.25345
  0
VERTEX
  8
0
 10
-7.53827
 20
0.2495
  0
VERTEX
  8
0
 10
-7.53495
 20
0.24581
  0
VERTEX
  8
0
 10
-7.53159
 20
0.2424
  0
VERTEX
  8
0
 10
-7.52814
 20
0.23924
  0
VERTEX
  8
0
 10
-7.52463
 20
0.23637
  0
VERTEX
  8
0
 10
-7.52104
 20
0.23376
  0
VERTEX
  8
0
 10
-7.51741
 20
0.23144
  0
VERTEX
  8
0
 10
-7.51368
 20
0.22936
  0
VERTEX
  8
0
 10
-7.5099
 20
0.22758
  0
VERTEX
  8
0
 10
-7.50603
 20
0.22606
  0
VERTEX
  8
0
 10
-7.50212
 20
0.22483
  0
VERTEX
  8
0
 10
-7.49811
 20
0.22385
  0
VERTEX
  8
0
 10
-7.49406
 20
0.22317
  0
VERTEX
  8
0
 10
-7.48992
 20
0.22276
  0
VERTEX
  8
0
 10
-7.48573
 20
0.22263
  0
VERTEX
  8
0
 10
-7.48389
 20
0.22264
  0
VERTEX
  8
0
 10
-7.48208
 20
0.22273
  0
VERTEX
  8
0
 10
-7.4803
 20
0.22286
  0
VERTEX
  8
0
 10
-7.47855
 20
0.22307
  0
VERTEX
  8
0
 10
-7.47681
 20
0.22331
  0
VERTEX
  8
0
 10
-7.47511
 20
0.22362
  0
VERTEX
  8
0
 10
-7.47342
 20
0.22398
  0
VERTEX
  8
0
 10
-7.47178
 20
0.22443
  0
VERTEX
  8
0
 10
-7.47014
 20
0.2249
  0
VERTEX
  8
0
 10
-7.46853
 20
0.22544
  0
VERTEX
  8
0
 10
-7.46695
 20
0.22604
  0
VERTEX
  8
0
 10
-7.4654
 20
0.2267
  0
VERTEX
  8
0
 10
-7.46386
 20
0.22739
  0
VERTEX
  8
0
 10
-7.46235
 20
0.22817
  0
VERTEX
  8
0
 10
-7.46086
 20
0.229
  0
VERTEX
  8
0
 10
-7.4594
 20
0.2299
  0
VERTEX
  8
0
 10
-7.45799
 20
0.23083
  0
VERTEX
  8
0
 10
-7.45661
 20
0.23182
  0
VERTEX
  8
0
 10
-7.45523
 20
0.23284
  0
VERTEX
  8
0
 10
-7.45388
 20
0.23394
  0
VERTEX
  8
0
 10
-7.45253
 20
0.23506
  0
VERTEX
  8
0
 10
-7.45121
 20
0.23626
  0
VERTEX
  8
0
 10
-7.44989
 20
0.23749
  0
VERTEX
  8
0
 10
-7.44861
 20
0.23881
  0
VERTEX
  8
0
 10
-7.44732
 20
0.24016
  0
VERTEX
  8
0
 10
-7.44606
 20
0.24157
  0
VERTEX
  8
0
 10
-7.44481
 20
0.24304
  0
VERTEX
  8
0
 10
-7.44359
 20
0.24459
  0
VERTEX
  8
0
 10
-7.44238
 20
0.24618
  0
VERTEX
  8
0
 10
-7.44119
 20
0.24786
  0
VERTEX
  8
0
 10
-7.44001
 20
0.24959
  0
VERTEX
  8
0
 10
-7.43471
 20
0.2514
  0
VERTEX
  8
0
 10
-7.43471
 20
0.2514
  0
VERTEX
  8
0
 10
-7.43532
 20
0.24441
  0
VERTEX
  8
0
 10
-7.43614
 20
0.2376
  0
VERTEX
  8
0
 10
-7.43716
 20
0.23095
  0
VERTEX
  8
0
 10
-7.4384
 20
0.2245
  0
VERTEX
  8
0
 10
-7.43983
 20
0.2182
  0
VERTEX
  8
0
 10
-7.44147
 20
0.21208
  0
VERTEX
  8
0
 10
-7.44331
 20
0.20612
  0
VERTEX
  8
0
 10
-7.44537
 20
0.20036
  0
VERTEX
  8
0
 10
-7.44761
 20
0.19474
  0
VERTEX
  8
0
 10
-7.45008
 20
0.18931
  0
VERTEX
  8
0
 10
-7.45274
 20
0.18403
  0
VERTEX
  8
0
 10
-7.45563
 20
0.17896
  0
VERTEX
  8
0
 10
-7.45871
 20
0.17403
  0
VERTEX
  8
0
 10
-7.46202
 20
0.16929
  0
VERTEX
  8
0
 10
-7.46552
 20
0.16471
  0
VERTEX
  8
0
 10
-7.46925
 20
0.16033
  0
VERTEX
  8
0
 10
-7.47311
 20
0.15614
  0
VERTEX
  8
0
 10
-7.4771
 20
0.15223
  0
VERTEX
  8
0
 10
-7.48118
 20
0.14858
  0
VERTEX
  8
0
 10
-7.4854
 20
0.14521
  0
VERTEX
  8
0
 10
-7.48971
 20
0.1421
  0
VERTEX
  8
0
 10
-7.49415
 20
0.13927
  0
VERTEX
  8
0
 10
-7.49869
 20
0.13671
  0
VERTEX
  8
0
 10
-7.50337
 20
0.13443
  0
VERTEX
  8
0
 10
-7.50813
 20
0.1324
  0
VERTEX
  8
0
 10
-7.51302
 20
0.13065
  0
VERTEX
  8
0
 10
-7.518
 20
0.12916
  0
VERTEX
  8
0
 10
-7.52313
 20
0.12795
  0
VERTEX
  8
0
 10
-7.52834
 20
0.127
  0
VERTEX
  8
0
 10
-7.53368
 20
0.12633
  0
VERTEX
  8
0
 10
-7.53912
 20
0.12593
  0
VERTEX
  8
0
 10
-7.5447
 20
0.12581
  0
VERTEX
  8
0
 10
-7.55078
 20
0.12596
  0
VERTEX
  8
0
 10
-7.55674
 20
0.12644
  0
VERTEX
  8
0
 10
-7.56256
 20
0.12722
  0
VERTEX
  8
0
 10
-7.56825
 20
0.12834
  0
VERTEX
  8
0
 10
-7.57378
 20
0.12977
  0
VERTEX
  8
0
 10
-7.57918
 20
0.13152
  0
VERTEX
  8
0
 10
-7.58444
 20
0.13359
  0
VERTEX
  8
0
 10
-7.58958
 20
0.13599
  0
VERTEX
  8
0
 10
-7.59455
 20
0.13869
  0
VERTEX
  8
0
 10
-7.5994
 20
0.14172
  0
VERTEX
  8
0
 10
-7.60411
 20
0.14507
  0
VERTEX
  8
0
 10
-7.60869
 20
0.14874
  0
VERTEX
  8
0
 10
-7.61311
 20
0.15272
  0
VERTEX
  8
0
 10
-7.6174
 20
0.15704
  0
VERTEX
  8
0
 10
-7.62155
 20
0.16166
  0
VERTEX
  8
0
 10
-7.62559
 20
0.16662
  0
VERTEX
  8
0
 10
-7.62938
 20
0.17182
  0
VERTEX
  8
0
 10
-7.63295
 20
0.17722
  0
VERTEX
  8
0
 10
-7.63627
 20
0.18277
  0
VERTEX
  8
0
 10
-7.63936
 20
0.18851
  0
VERTEX
  8
0
 10
-7.64218
 20
0.1944
  0
VERTEX
  8
0
 10
-7.64477
 20
0.20049
  0
VERTEX
  8
0
 10
-7.64711
 20
0.20673
  0
VERTEX
  8
0
 10
-7.64921
 20
0.21316
  0
VERTEX
  8
0
 10
-7.65104
 20
0.21973
  0
VERTEX
  8
0
 10
-7.65265
 20
0.2265
  0
VERTEX
  8
0
 10
-7.654
 20
0.23341
  0
VERTEX
  8
0
 10
-7.65513
 20
0.24052
  0
VERTEX
  8
0
 10
-7.65598
 20
0.24778
  0
VERTEX
  8
0
 10
-7.65661
 20
0.25522
  0
VERTEX
  8
0
 10
-7.65697
 20
0.26282
  0
VERTEX
  8
0
 10
-7.65711
 20
0.27061
  0
VERTEX
  8
0
 10
-7.65676
 20
0.28409
  0
VERTEX
  8
0
 10
-7.65576
 20
0.29741
  0
VERTEX
  8
0
 10
-7.65408
 20
0.31054
  0
VERTEX
  8
0
 10
-7.65174
 20
0.3235
  0
VERTEX
  8
0
 10
-7.64871
 20
0.33625
  0
VERTEX
  8
0
 10
-7.64504
 20
0.34885
  0
VERTEX
  8
0
 10
-7.64068
 20
0.36125
  0
VERTEX
  8
0
 10
-7.63567
 20
0.37349
  0
VERTEX
  8
0
 10
-7.62996
 20
0.38552
  0
VERTEX
  8
0
 10
-7.6236
 20
0.3974
  0
VERTEX
  8
0
 10
-7.61656
 20
0.40908
  0
VERTEX
  8
0
 10
-7.60887
 20
0.4206
  0
VERTEX
  8
0
 10
-7.60049
 20
0.43193
  0
VERTEX
  8
0
 10
-7.59146
 20
0.44309
  0
VERTEX
  8
0
 10
-7.58174
 20
0.45407
  0
VERTEX
  8
0
 10
-7.57138
 20
0.4649
  0
VERTEX
  8
0
 10
-7.56052
 20
0.47522
  0
VERTEX
  8
0
 10
-7.54945
 20
0.48488
  0
VERTEX
  8
0
 10
-7.53814
 20
0.49387
  0
VERTEX
  8
0
 10
-7.52659
 20
0.50221
  0
VERTEX
  8
0
 10
-7.51479
 20
0.50986
  0
VERTEX
  8
0
 10
-7.50276
 20
0.51687
  0
VERTEX
  8
0
 10
-7.49049
 20
0.5232
  0
VERTEX
  8
0
 10
-7.47798
 20
0.52888
  0
VERTEX
  8
0
 10
-7.4652
 20
0.53386
  0
VERTEX
  8
0
 10
-7.45221
 20
0.5382
  0
VERTEX
  8
0
 10
-7.43898
 20
0.54186
  0
VERTEX
  8
0
 10
-7.42551
 20
0.54487
  0
VERTEX
  8
0
 10
-7.41177
 20
0.54719
  0
VERTEX
  8
0
 10
-7.39782
 20
0.54887
  0
VERTEX
  8
0
 10
-7.38362
 20
0.54986
  0
VERTEX
  8
0
 10
-7.36919
 20
0.55021
  0
VERTEX
  8
0
 10
-7.35824
 20
0.54995
  0
VERTEX
  8
0
 10
-7.34753
 20
0.5492
  0
VERTEX
  8
0
 10
-7.33706
 20
0.54795
  0
VERTEX
  8
0
 10
-7.32683
 20
0.54622
  0
VERTEX
  8
0
 10
-7.31682
 20
0.54397
  0
VERTEX
  8
0
 10
-7.30707
 20
0.54124
  0
VERTEX
  8
0
 10
-7.29755
 20
0.53801
  0
VERTEX
  8
0
 10
-7.28828
 20
0.53429
  0
VERTEX
  8
0
 10
-7.27922
 20
0.53006
  0
VERTEX
  8
0
 10
-7.27043
 20
0.52535
  0
VERTEX
  8
0
 10
-7.26185
 20
0.52013
  0
VERTEX
  8
0
 10
-7.25354
 20
0.51444
  0
VERTEX
  8
0
 10
-7.24545
 20
0.50823
  0
VERTEX
  8
0
 10
-7.23762
 20
0.50156
  0
VERTEX
  8
0
 10
-7.23003
 20
0.49437
  0
VERTEX
  8
0
 10
-7.22268
 20
0.48672
  0
VERTEX
  8
0
 10
-7.21566
 20
0.4786
  0
VERTEX
  8
0
 10
-7.20911
 20
0.47023
  0
VERTEX
  8
0
 10
-7.203
 20
0.46159
  0
VERTEX
  8
0
 10
-7.19735
 20
0.4527
  0
VERTEX
  8
0
 10
-7.19214
 20
0.44353
  0
VERTEX
  8
0
 10
-7.18741
 20
0.43411
  0
VERTEX
  8
0
 10
-7.18311
 20
0.42443
  0
VERTEX
  8
0
 10
-7.17928
 20
0.4145
  0
VERTEX
  8
0
 10
-7.17588
 20
0.40428
  0
VERTEX
  8
0
 10
-7.17295
 20
0.39382
  0
VERTEX
  8
0
 10
-7.17046
 20
0.38309
  0
VERTEX
  8
0
 10
-7.16844
 20
0.37211
  0
VERTEX
  8
0
 10
-7.16686
 20
0.36084
  0
VERTEX
  8
0
 10
-7.16574
 20
0.34933
  0
VERTEX
  8
0
 10
-7.16506
 20
0.33755
  0
VERTEX
  8
0
 10
-7.16484
 20
0.32553
  0
VERTEX
  8
0
 10
-7.16512
 20
0.31097
  0
VERTEX
  8
0
 10
-7.16601
 20
0.29662
  0
VERTEX
  8
0
 10
-7.16748
 20
0.28248
  0
VERTEX
  8
0
 10
-7.16955
 20
0.26857
  0
VERTEX
  8
0
 10
-7.17219
 20
0.25484
  0
VERTEX
  8
0
 10
-7.17543
 20
0.24133
  0
VERTEX
  8
0
 10
-7.17925
 20
0.22803
  0
VERTEX
  8
0
 10
-7.18369
 20
0.21494
  0
VERTEX
  8
0
 10
-7.18868
 20
0.20203
  0
VERTEX
  8
0
 10
-7.19429
 20
0.18935
  0
VERTEX
  8
0
 10
-7.20047
 20
0.17686
  0
VERTEX
  8
0
 10
-7.20726
 20
0.1646
  0
VERTEX
  8
0
 10
-7.21461
 20
0.15253
  0
VERTEX
  8
0
 10
-7.22258
 20
0.14067
  0
VERTEX
  8
0
 10
-7.23113
 20
0.12901
  0
VERTEX
  8
0
 10
-7.24029
 20
0.11756
  0
VERTEX
  8
0
 10
-7.24997
 20
0.10625
  0
VERTEX
  8
0
 10
-7.26031
 20
0.09512
  0
VERTEX
  8
0
 10
-7.27129
 20
0.08415
  0
VERTEX
  8
0
 10
-7.28292
 20
0.07335
  0
VERTEX
  8
0
 10
-7.29517
 20
0.0627
  0
VERTEX
  8
0
 10
-7.30809
 20
0.05223
  0
VERTEX
  8
0
 10
-7.32163
 20
0.04192
  0
VERTEX
  8
0
 10
-7.33583
 20
0.03178
  0
VERTEX
  8
0
 10
-7.35064
 20
0.02179
  0
VERTEX
  8
0
 10
-7.36611
 20
0.01198
  0
VERTEX
  8
0
 10
-7.3822
 20
0.00234
  0
VERTEX
  8
0
 10
-7.39893
 20
-0.00714
  0
VERTEX
  8
0
 10
-7.41628
 20
-0.01644
  0
VERTEX
  8
0
 10
-7.43429
 20
-0.02559
  0
VERTEX
  8
0
 10
-7.45291
 20
-0.03458
  0
VERTEX
  8
0
 10
-7.47218
 20
-0.0434
  0
VERTEX
  8
0
 10
-7.48783
 20
-0.05047
  0
VERTEX
  8
0
 10
-7.50305
 20
-0.0574
  0
VERTEX
  8
0
 10
-7.51781
 20
-0.06417
  0
VERTEX
  8
0
 10
-7.53213
 20
-0.07081
  0
VERTEX
  8
0
 10
-7.54598
 20
-0.07728
  0
VERTEX
  8
0
 10
-7.55938
 20
-0.08361
  0
VERTEX
  8
0
 10
-7.57233
 20
-0.08978
  0
VERTEX
  8
0
 10
-7.58484
 20
-0.09582
  0
VERTEX
  8
0
 10
-7.59687
 20
-0.10169
  0
VERTEX
  8
0
 10
-7.60846
 20
-0.10743
  0
VERTEX
  8
0
 10
-7.6196
 20
-0.11301
  0
VERTEX
  8
0
 10
-7.63029
 20
-0.11846
  0
VERTEX
  8
0
 10
-7.64051
 20
-0.12375
  0
VERTEX
  8
0
 10
-7.65029
 20
-0.12891
  0
VERTEX
  8
0
 10
-7.65961
 20
-0.13392
  0
VERTEX
  8
0
 10
-7.6685
 20
-0.13881
  0
VERTEX
  8
0
 10
-7.67699
 20
-0.14356
  0
VERTEX
  8
0
 10
-7.68524
 20
-0.14828
  0
VERTEX
  8
0
 10
-7.69326
 20
-0.15296
  0
VERTEX
  8
0
 10
-7.70106
 20
-0.15762
  0
VERTEX
  8
0
 10
-7.70861
 20
-0.16222
  0
VERTEX
  8
0
 10
-7.71593
 20
-0.16679
  0
VERTEX
  8
0
 10
-7.72301
 20
-0.17131
  0
VERTEX
  8
0
 10
-7.72986
 20
-0.17579
  0
VERTEX
  8
0
 10
-7.73646
 20
-0.18022
  0
VERTEX
  8
0
 10
-7.74284
 20
-0.18461
  0
VERTEX
  8
0
 10
-7.74898
 20
-0.18895
  0
VERTEX
  8
0
 10
-7.75489
 20
-0.19326
  0
VERTEX
  8
0
 10
-7.76056
 20
-0.19751
  0
VERTEX
  8
0
 10
-7.76599
 20
-0.20172
  0
VERTEX
  8
0
 10
-7.77118
 20
-0.20589
  0
VERTEX
  8
0
 10
-7.77365
 20
-0.21436
  0
VERTEX
  8
0
 10
-7.77365
 20
-0.21436
  0
VERTEX
  8
0
 10
-7.76954
 20
-0.21255
  0
VERTEX
  8
0
 10
-7.76544
 20
-0.21081
  0
VERTEX
  8
0
 10
-7.76135
 20
-0.20913
  0
VERTEX
  8
0
 10
-7.75728
 20
-0.20754
  0
VERTEX
  8
0
 10
-7.7532
 20
-0.20599
  0
VERTEX
  8
0
 10
-7.74915
 20
-0.20452
  0
VERTEX
  8
0
 10
-7.7451
 20
-0.20311
  0
VERTEX
  8
0
 10
-7.74108
 20
-0.20176
  0
VERTEX
  8
0
 10
-7.73704
 20
-0.20045
  0
VERTEX
  8
0
 10
-7.73302
 20
-0.19922
  0
VERTEX
  8
0
 10
-7.72902
 20
-0.19805
  0
VERTEX
  8
0
 10
-7.72503
 20
-0.19694
  0
VERTEX
  8
0
 10
-7.72104
 20
-0.19588
  0
VERTEX
  8
0
 10
-7.71706
 20
-0.19489
  0
VERTEX
  8
0
 10
-7.7131
 20
-0.19395
  0
VERTEX
  8
0
 10
-7.70916
 20
-0.19308
  0
VERTEX
  8
0
 10
-7.70522
 20
-0.19227
  0
VERTEX
  8
0
 10
-7.7013
 20
-0.19154
  0
VERTEX
  8
0
 10
-7.6974
 20
-0.19083
  0
VERTEX
  8
0
 10
-7.69352
 20
-0.1902
  0
VERTEX
  8
0
 10
-7.68964
 20
-0.1896
  0
VERTEX
  8
0
 10
-7.68578
 20
-0.18906
  0
VERTEX
  8
0
 10
-7.68193
 20
-0.18856
  0
VERTEX
  8
0
 10
-7.6781
 20
-0.18814
  0
VERTEX
  8
0
 10
-7.67426
 20
-0.18773
  0
VERTEX
  8
0
 10
-7.67043
 20
-0.1874
  0
VERTEX
  8
0
 10
-7.66662
 20
-0.1871
  0
VERTEX
  8
0
 10
-7.66282
 20
-0.18688
  0
VERTEX
  8
0
 10
-7.65902
 20
-0.18668
  0
VERTEX
  8
0
 10
-7.65524
 20
-0.18656
  0
VERTEX
  8
0
 10
-7.65146
 20
-0.18647
  0
VERTEX
  8
0
 10
-7.6477
 20
-0.18646
  0
VERTEX
  8
0
 10
-7.64171
 20
-0.18656
  0
VERTEX
  8
0
 10
-7.6355
 20
-0.18689
  0
VERTEX
  8
0
 10
-7.62905
 20
-0.18744
  0
VERTEX
  8
0
 10
-7.62239
 20
-0.18822
  0
VERTEX
  8
0
 10
-7.61549
 20
-0.1892
  0
VERTEX
  8
0
 10
-7.60836
 20
-0.19042
  0
VERTEX
  8
0
 10
-7.601
 20
-0.19184
  0
VERTEX
  8
0
 10
-7.59342
 20
-0.19351
  0
VERTEX
  8
0
 10
-7.58559
 20
-0.19537
  0
VERTEX
  8
0
 10
-7.57755
 20
-0.19746
  0
VERTEX
  8
0
 10
-7.56928
 20
-0.19976
  0
VERTEX
  8
0
 10
-7.56079
 20
-0.2023
  0
VERTEX
  8
0
 10
-7.55206
 20
-0.20503
  0
VERTEX
  8
0
 10
-7.54312
 20
-0.208
  0
VERTEX
  8
0
 10
-7.53396
 20
-0.21117
  0
VERTEX
  8
0
 10
-7.52458
 20
-0.21458
  0
VERTEX
  8
0
 10
-7.51517
 20
-0.21796
  0
VERTEX
  8
0
 10
-7.50611
 20
-0.22113
  0
VERTEX
  8
0
 10
-7.49739
 20
-0.22409
  0
VERTEX
  8
0
 10
-7.48902
 20
-0.22685
  0
VERTEX
  8
0
 10
-7.48096
 20
-0.22937
  0
VERTEX
  8
0
 10
-7.47326
 20
-0.23169
  0
VERTEX
  8
0
 10
-7.46589
 20
-0.23379
  0
VERTEX
  8
0
 10
-7.45887
 20
-0.23568
  0
VERTEX
  8
0
 10
-7.45216
 20
-0.23733
  0
VERTEX
  8
0
 10
-7.4458
 20
-0.23878
  0
VERTEX
  8
0
 10
-7.43976
 20
-0.24
  0
VERTEX
  8
0
 10
-7.43407
 20
-0.24101
  0
VERTEX
  8
0
 10
-7.42869
 20
-0.24178
  0
VERTEX
  8
0
 10
-7.42366
 20
-0.24235
  0
VERTEX
  8
0
 10
-7.41896
 20
-0.24268
  0
VERTEX
  8
0
 10
-7.4146
 20
-0.2428
  0
VERTEX
  8
0
 10
-7.40768
 20
-0.24257
  0
VERTEX
  8
0
 10
-7.40083
 20
-0.24194
  0
VERTEX
  8
0
 10
-7.39402
 20
-0.24086
  0
VERTEX
  8
0
 10
-7.38728
 20
-0.23939
  0
VERTEX
  8
0
 10
-7.38057
 20
-0.23747
  0
VERTEX
  8
0
 10
-7.37393
 20
-0.23513
  0
VERTEX
  8
0
 10
-7.36733
 20
-0.23237
  0
VERTEX
  8
0
 10
-7.3608
 20
-0.22919
  0
VERTEX
  8
0
 10
-7.35429
 20
-0.22556
  0
VERTEX
  8
0
 10
-7.34786
 20
-0.22153
  0
VERTEX
  8
0
 10
-7.34147
 20
-0.21706
  0
VERTEX
  8
0
 10
-7.33516
 20
-0.21219
  0
VERTEX
  8
0
 10
-7.32887
 20
-0.20688
  0
VERTEX
  8
0
 10
-7.32266
 20
-0.20115
  0
VERTEX
  8
0
 10
-7.31648
 20
-0.19499
  0
VERTEX
  8
0
 10
-7.31039
 20
-0.18842
  0
VERTEX
  8
0
 10
-7.30436
 20
-0.18141
  0
VERTEX
  8
0
 10
-7.29839
 20
-0.17397
  0
VERTEX
  8
0
 10
-7.29246
 20
-0.16609
  0
VERTEX
  8
0
 10
-7.28658
 20
-0.15778
  0
VERTEX
  8
0
 10
-7.28073
 20
-0.14902
  0
VERTEX
  8
0
 10
-7.27494
 20
-0.13984
  0
VERTEX
  8
0
 10
-7.26918
 20
-0.13021
  0
VERTEX
  8
0
 10
-7.2635
 20
-0.12016
  0
VERTEX
  8
0
 10
-7.25783
 20
-0.10965
  0
VERTEX
  8
0
 10
-7.25223
 20
-0.09873
  0
VERTEX
  8
0
 10
-7.24666
 20
-0.08736
  0
VERTEX
  8
0
 10
-7.24117
 20
-0.07557
  0
VERTEX
  8
0
 10
-7.2357
 20
-0.06333
  0
VERTEX
  8
0
 10
-7.2303
 20
-0.05068
  0
VERTEX
  8
0
 10
-7.22494
 20
-0.03758
  0
VERTEX
  8
0
 10
-7.20964
 20
-0.02897
  0
VERTEX
  8
0
 10
-7.20964
 20
-0.02897
  0
VERTEX
  8
0
 10
-7.21707
 20
-0.04781
  0
VERTEX
  8
0
 10
-7.22465
 20
-0.06614
  0
VERTEX
  8
0
 10
-7.23238
 20
-0.08392
  0
VERTEX
  8
0
 10
-7.24026
 20
-0.10117
  0
VERTEX
  8
0
 10
-7.24827
 20
-0.11786
  0
VERTEX
  8
0
 10
-7.25644
 20
-0.13403
  0
VERTEX
  8
0
 10
-7.26476
 20
-0.14966
  0
VERTEX
  8
0
 10
-7.27324
 20
-0.16475
  0
VERTEX
  8
0
 10
-7.28184
 20
-0.17929
  0
VERTEX
  8
0
 10
-7.2906
 20
-0.1933
  0
VERTEX
  8
0
 10
-7.2995
 20
-0.20677
  0
VERTEX
  8
0
 10
-7.30857
 20
-0.2197
  0
VERTEX
  8
0
 10
-7.31777
 20
-0.23209
  0
VERTEX
  8
0
 10
-7.32714
 20
-0.24394
  0
VERTEX
  8
0
 10
-7.33664
 20
-0.25525
  0
VERTEX
  8
0
 10
-7.34631
 20
-0.26602
  0
VERTEX
  8
0
 10
-7.35604
 20
-0.27613
  0
VERTEX
  8
0
 10
-7.3658
 20
-0.28561
  0
VERTEX
  8
0
 10
-7.37557
 20
-0.29443
  0
VERTEX
  8
0
 10
-7.38538
 20
-0.3026
  0
VERTEX
  8
0
 10
-7.39519
 20
-0.3101
  0
VERTEX
  8
0
 10
-7.40504
 20
-0.31696
  0
VERTEX
  8
0
 10
-7.41491
 20
-0.32317
  0
VERTEX
  8
0
 10
-7.42482
 20
-0.32872
  0
VERTEX
  8
0
 10
-7.43473
 20
-0.33361
  0
VERTEX
  8
0
 10
-7.44467
 20
-0.33785
  0
VERTEX
  8
0
 10
-7.45464
 20
-0.34144
  0
VERTEX
  8
0
 10
-7.46464
 20
-0.34438
  0
VERTEX
  8
0
 10
-7.47465
 20
-0.34666
  0
VERTEX
  8
0
 10
-7.48471
 20
-0.34829
  0
VERTEX
  8
0
 10
-7.49478
 20
-0.34927
  0
VERTEX
  8
0
 10
-7.5049
 20
-0.3496
  0
VERTEX
  8
0
 10
-7.51178
 20
-0.34939
  0
VERTEX
  8
0
 10
-7.51898
 20
-0.3488
  0
VERTEX
  8
0
 10
-7.5265
 20
-0.3478
  0
VERTEX
  8
0
 10
-7.53434
 20
-0.34642
  0
VERTEX
  8
0
 10
-7.54248
 20
-0.34463
  0
VERTEX
  8
0
 10
-7.55094
 20
-0.34245
  0
VERTEX
  8
0
 10
-7.55972
 20
-0.33988
  0
VERTEX
  8
0
 10
-7.56882
 20
-0.33693
  0
VERTEX
  8
0
 10
-7.57822
 20
-0.33356
  0
VERTEX
  8
0
 10
-7.58795
 20
-0.32982
  0
VERTEX
  8
0
 10
-7.59799
 20
-0.32567
  0
VERTEX
  8
0
 10
-7.60835
 20
-0.32115
  0
VERTEX
  8
0
 10
-7.61902
 20
-0.31622
  0
VERTEX
  8
0
 10
-7.63001
 20
-0.31092
  0
VERTEX
  8
0
 10
-7.64132
 20
-0.30521
  0
VERTEX
  8
0
 10
-7.65296
 20
-0.29913
  0
VERTEX
  8
0
 10
-7.65632
 20
-0.29726
  0
VERTEX
  8
0
 10
-7.65959
 20
-0.29547
  0
VERTEX
  8
0
 10
-7.66275
 20
-0.29374
  0
VERTEX
  8
0
 10
-7.66581
 20
-0.29209
  0
VERTEX
  8
0
 10
-7.66875
 20
-0.2905
  0
VERTEX
  8
0
 10
-7.67158
 20
-0.28897
  0
VERTEX
  8
0
 10
-7.67431
 20
-0.2875
  0
VERTEX
  8
0
 10
-7.67694
 20
-0.28612
  0
VERTEX
  8
0
 10
-7.67943
 20
-0.28477
  0
VERTEX
  8
0
 10
-7.68183
 20
-0.28351
  0
VERTEX
  8
0
 10
-7.68411
 20
-0.2823
  0
VERTEX
  8
0
 10
-7.68629
 20
-0.28116
  0
VERTEX
  8
0
 10
-7.68835
 20
-0.28008
  0
VERTEX
  8
0
 10
-7.6903
 20
-0.27906
  0
VERTEX
  8
0
 10
-7.69214
 20
-0.2781
  0
VERTEX
  8
0
 10
-7.69388
 20
-0.2772
  0
VERTEX
  8
0
 10
-7.69783
 20
-0.27522
  0
VERTEX
  8
0
 10
-7.70175
 20
-0.27333
  0
VERTEX
  8
0
 10
-7.70562
 20
-0.27147
  0
VERTEX
  8
0
 10
-7.70946
 20
-0.2697
  0
VERTEX
  8
0
 10
-7.71324
 20
-0.26796
  0
VERTEX
  8
0
 10
-7.71699
 20
-0.2663
  0
VERTEX
  8
0
 10
-7.7207
 20
-0.26468
  0
VERTEX
  8
0
 10
-7.72437
 20
-0.26315
  0
VERTEX
  8
0
 10
-7.72799
 20
-0.26165
  0
VERTEX
  8
0
 10
-7.73157
 20
-0.26021
  0
VERTEX
  8
0
 10
-7.7351
 20
-0.25883
  0
VERTEX
  8
0
 10
-7.7386
 20
-0.25751
  0
VERTEX
  8
0
 10
-7.74204
 20
-0.25623
  0
VERTEX
  8
0
 10
-7.74546
 20
-0.25503
  0
VERTEX
  8
0
 10
-7.74882
 20
-0.25386
  0
VERTEX
  8
0
 10
-7.75216
 20
-0.25278
  0
VERTEX
  8
0
 10
-7.75537
 20
-0.25179
  0
VERTEX
  8
0
 10
-7.75855
 20
-0.25086
  0
VERTEX
  8
0
 10
-7.76169
 20
-0.24999
  0
VERTEX
  8
0
 10
-7.76479
 20
-0.24919
  0
VERTEX
  8
0
 10
-7.76782
 20
-0.24844
  0
VERTEX
  8
0
 10
-7.77082
 20
-0.24777
  0
VERTEX
  8
0
 10
-7.77378
 20
-0.24715
  0
VERTEX
  8
0
 10
-7.7767
 20
-0.24661
  0
VERTEX
  8
0
 10
-7.77955
 20
-0.24612
  0
VERTEX
  8
0
 10
-7.78237
 20
-0.2457
  0
VERTEX
  8
0
 10
-7.78514
 20
-0.24534
  0
VERTEX
  8
0
 10
-7.78788
 20
-0.24505
  0
VERTEX
  8
0
 10
-7.79055
 20
-0.24481
  0
VERTEX
  8
0
 10
-7.79319
 20
-0.24465
  0
VERTEX
  8
0
 10
-7.79579
 20
-0.24456
  0
VERTEX
  8
0
 10
-7.79835
 20
-0.24453
  0
VERTEX
  8
0
 10
-7.80017
 20
-0.24454
  0
VERTEX
  8
0
 10
-7.80196
 20
-0.24459
  0
VERTEX
  8
0
 10
-7.80372
 20
-0.24466
  0
VERTEX
  8
0
 10
-7.80545
 20
-0.24479
  0
VERTEX
  8
0
 10
-7.80714
 20
-0.24493
  0
VERTEX
  8
0
 10
-7.80882
 20
-0.24513
  0
VERTEX
  8
0
 10
-7.81046
 20
-0.24535
  0
VERTEX
  8
0
 10
-7.81209
 20
-0.24562
  0
VERTEX
  8
0
 10
-7.81366
 20
-0.2459
  0
VERTEX
  8
0
 10
-7.81523
 20
-0.24624
  0
VERTEX
  8
0
 10
-7.81677
 20
-0.24661
  0
VERTEX
  8
0
 10
-7.8183
 20
-0.24704
  0
VERTEX
  8
0
 10
-7.81978
 20
-0.24748
  0
VERTEX
  8
0
 10
-7.82126
 20
-0.24798
  0
VERTEX
  8
0
 10
-7.82271
 20
-0.2485
  0
VERTEX
  8
0
 10
-7.82416
 20
-0.24909
  0
VERTEX
  8
0
 10
-7.82553
 20
-0.24968
  0
VERTEX
  8
0
 10
-7.82692
 20
-0.25033
  0
VERTEX
  8
0
 10
-7.82833
 20
-0.25102
  0
VERTEX
  8
0
 10
-7.82977
 20
-0.25176
  0
VERTEX
  8
0
 10
-7.8312
 20
-0.25252
  0
VERTEX
  8
0
 10
-7.83265
 20
-0.25335
  0
VERTEX
  8
0
 10
-7.83412
 20
-0.2542
  0
VERTEX
  8
0
 10
-7.83561
 20
-0.25511
  0
VERTEX
  8
0
 10
-7.83709
 20
-0.25603
  0
VERTEX
  8
0
 10
-7.83859
 20
-0.25701
  0
VERTEX
  8
0
 10
-7.84011
 20
-0.25802
  0
VERTEX
  8
0
 10
-7.84165
 20
-0.25909
  0
VERTEX
  8
0
 10
-7.84318
 20
-0.26018
  0
VERTEX
  8
0
 10
-7.84474
 20
-0.26132
  0
VERTEX
  8
0
 10
-7.84631
 20
-0.2625
  0
SEQEND
  8
0
  0
POLYLINE
  8
0
 66
     1
  0
VERTEX
  8
0
 10
-5.87389
 20
4.72108
  0
VERTEX
  8
0
 10
-3.67907
 20
4.72108
  0
VERTEX
  8
0
 10
-3.67907
 20
3.70679
  0
VERTEX
  8
0
 10
-5.87389
 20
3.70679
  0
VERTEX
  8
0
 10
-5.87389
 20
4.72108
  0
SEQEND
  8
0
  0
POLYLINE
  8
0
 66
     1
  0
VERTEX
  8
0
 10
-3.67508
 20
4.72108
  0
VERTEX
  8
0
 10
-1.48025
 20
4.72108
  0
VERTEX
  8
0
 10
-1.48025
 20
3.70679
  0
VERTEX
  8
0
 10
-3.67508
 20
3.70679
  0
VERTEX
  8
0
 10
-3.67508
 20
4.72108
  0
SEQEND
  8
0
  0
POLYLINE
  8
0
 66
     1
  0
VERTEX
  8
0
 10
-1.4758
 20
4.72108
  0
VERTEX
  8
0
 10
0.71896
 20
4.72108
  0
VERTEX
  8
0
 10
0.71896
 20
3.70679
  0
VERTEX
  8
0
 10
-1.4758
 20
3.70679
  0
VERTEX
  8
0
 10
-1.4758
 20
4.72108
  0
SEQEND
  8
0
  0
POLYLINE
  8
0
 66
     1
  0
VERTEX
  8
0
 10
0.7235
 20
4.72108
  0
VERTEX
  8
0
 10
2.91829
 20
4.72108
  0
VERTEX
  8
0
 10
2.91829
 20
3.70679
  0
VERTEX
  8
0
 10
0.7235
 20
3.70679
  0
VERTEX
  8
0
 10
0.7235
 20
4.72108
  0
SEQEND
  8
0
  0
POLYLINE
  8
0
 66
     1
  0
VERTEX
  8
0
 10
2.92235
 20
4.72108
  0
VERTEX
  8
0
 10
5.11716
 20
4.72108
  0
VERTEX
  8
0
 10
5.11716
 20
3.70679
  0
VERTEX
  8
0
 10
2.92235
 20
3.70679
  0
VERTEX
  8
0
 10
2.92235
 20
4.72108
  0
SEQEND
  8
0
  0
POLYLINE
  8
0
 66
     1
  0
VERTEX
  8
0
 10
5.12125
 20
4.72108
  0
VERTEX
  8
0
 10
7.31607
 20
4.72108
  0
VERTEX
  8
0
 10
7.31607
 20
3.70679
  0
VERTEX
  8
0
 10
5.12125
 20
3.70679
  0
VERTEX
  8
0
 10
5.12125
 20
4.72108
  0
SEQEND
  8
0
  0
POLYLINE
  8
0
 66
     1
  0
VERTEX
  8
0
 10
7.31999
 20
4.72108
  0
VERTEX
  8
0
 10
9.51478
 20
4.72108
  0
VERTEX
  8
0
 10
9.51478
 20
3.70679
  0
VERTEX
  8
0
 10
7.31999
 20
3.70679
  0
VERTEX
  8
0
 10
7.31999
 20
4.72108
  0
SEQEND
  8
0
  0
POLYLINE
  8
0
 66
     1
  0
VERTEX
  8
0
 10
9.51894
 20
4.72108
  0
VERTEX
  8
0
 10
11.71371
 20
4.72108
  0
VERTEX
  8
0
 10
11.71371
 20
3.70679
  0
VERTEX
  8
0
 10
9.51894
 20
3.70679
  0
VERTEX
  8
0
 10
9.51894
 20
4.72108
  0
SEQEND
  8
0
  0
POLYLINE
  8
0
 66
     1
  0
VERTEX
  8
0
 10
11.7177
 20
4.72108
  0
VERTEX
  8
0
 10
13.91251
 20
4.72108
  0
VERTEX
  8
0
 10
13.91251
 20
3.70679
  0
VERTEX
  8
0
 10
11.7177
 20
3.70679
  0
VERTEX
  8
0
 10
11.7177
 20
4.72108
  0
SEQEND
  8
0
  0
POLYLINE
  8
0
 66
     1
  0
VERTEX
  8
0
 10
13.91656
 20
4.72108
  0
VERTEX
  8
0
 10
16.11138
 20
4.72108
  0
VERTEX
  8
0
 10
16.11138
 20
3.70679
  0
VERTEX
  8
0
 10
13.91656
 20
3.70679
  0
VERTEX
  8
0
 10
13.91656
 20
4.72108
  0
SEQEND
  8
0
  0
POLYLINE
  8
0
 66
     1
  0
VERTEX
  8
0
 10
-5.87594
 20
7.78139
  0
VERTEX
  8
0
 10
-0.38742
 20
7.78139
  0
VERTEX
  8
0
 10
-0.38742
 20
6.7671
  0
VERTEX
  8
0
 10
-5.87594
 20
6.7671
  0
VERTEX
  8
0
 10
-5.87594
 20
7.78139
  0
SEQEND
  8
0
  0
POLYLINE
  8
0
 66
     1
  0
VERTEX
  8
0
 10
-0.37705
 20
7.78139
  0
VERTEX
  8
0
 10
5.11147
 20
7.78139
  0
VERTEX
  8
0
 10
5.11147
 20
6.7671
  0
VERTEX
  8
0
 10
-0.37705
 20
6.7671
  0
VERTEX
  8
0
 10
-0.37705
 20
7.78139
  0
SEQEND
  8
0
  0
POLYLINE
  8
0
 66
     1
  0
VERTEX
  8
0
 10
5.12191
 20
7.78139
  0
VERTEX
  8
0
 10
10.61045
 20
7.78139
  0
VERTEX
  8
0
 10
10.61045
 20
6.7671
  0
VERTEX
  8
0
 10
5.12191
 20
6.7671
  0
VERTEX
  8
0
 10
5.12191
 20
7.78139
  0
SEQEND
  8
0
  0
POLYLINE
  8
0
 66
     1
  0
VERTEX
  8
0
 10
10.6208
 20
7.78139
  0
VERTEX
  8
0
 10
16.10933
 20
7.78139
  0
VERTEX
  8
0
 10
16.10933
 20
6.7671
  0
VERTEX
  8
0
 10
10.6208
 20
6.7671
  0
VERTEX
  8
0
 10
10.6208
 20
7.78139
  0
SEQEND
  8
0
  0
POLYLINE
  8
0
 66
     1
  0
VERTEX
  8
0
 10
-5.87389
 20
5.74615
  0
VERTEX
  8
0
 10
-3.13027
 20
5.74615
  0
VERTEX
  8
0
 10
-3.13027
 20
4.73187
  0
VERTEX
  8
0
 10
-5.87389
 20
4.73187
  0
VERTEX
  8
0
 10
-5.87389
 20
5.74615
  0
SEQEND
  8
0
  0
POLYLINE
  8
0
 66
     1
  0
VERTEX
  8
0
 10
-5.87389
 20
5.74615
  0
VERTEX
  8
0
 10
-3.13027
 20
5.74615
  0
VERTEX
  8
0
 10
-3.13027
 20
4.73187
  0
VERTEX
  8
0
 10
-5.87389
 20
4.73187
  0
VERTEX
  8
0
 10
-5.87389
 20
5.74615
  0
SEQEND
  8
0
  0
POLYLINE
  8
0
 66
     1
  0
VERTEX
  8
0
 10
-3.12507
 20
5.74615
  0
VERTEX
  8
0
 10
-0.38147
 20
5.74615
  0
VERTEX
  8
0
 10
-0.38147
 20
4.73187
  0
VERTEX
  8
0
 10
-3.12507
 20
4.73187
  0
VERTEX
  8
0
 10
-3.12507
 20
5.74615
  0
SEQEND
  8
0
  0
POLYLINE
  8
0
 66
     1
  0
VERTEX
  8
0
 10
-0.37625
 20
5.74615
  0
VERTEX
  8
0
 10
2.36736
 20
5.74615
  0
VERTEX
  8
0
 10
2.36736
 20
4.73187
  0
VERTEX
  8
0
 10
-0.37625
 20
4.73187
  0
VERTEX
  8
0
 10
-0.37625
 20
5.74615
  0
SEQEND
  8
0
  0
POLYLINE
  8
0
 66
     1
  0
VERTEX
  8
0
 10
2.37254
 20
5.74615
  0
VERTEX
  8
0
 10
5.11615
 20
5.74615
  0
VERTEX
  8
0
 10
5.11615
 20
4.73187
  0
VERTEX
  8
0
 10
2.37254
 20
4.73187
  0
VERTEX
  8
0
 10
2.37254
 20
5.74615
  0
SEQEND
  8
0
  0
POLYLINE
  8
0
 66
     1
  0
VERTEX
  8
0
 10
5.12134
 20
5.74615
  0
VERTEX
  8
0
 10
7.86495
 20
5.74615
  0
VERTEX
  8
0
 10
7.86495
 20
4.73187
  0
VERTEX
  8
0
 10
5.12134
 20
4.73187
  0
VERTEX
  8
0
 10
5.12134
 20
5.74615
  0
SEQEND
  8
0
  0
POLYLINE
  8
0
 66
     1
  0
VERTEX
  8
0
 10
7.87015
 20
5.74615
  0
VERTEX
  8
0
 10
10.61379
 20
5.74615
  0
VERTEX
  8
0
 10
10.61379
 20
4.73187
  0
VERTEX
  8
0
 10
7.87015
 20
4.73187
  0
VERTEX
  8
0
 10
7.87015
 20
5.74615
  0
SEQEND
  8
0
  0
POLYLINE
  8
0
 66
     1
  0
VERTEX
  8
0
 10
10.61896
 20
5.74615
  0
VERTEX
  8
0
 10
13.36258
 20
5.74615
  0
VERTEX
  8
0
 10
13.36258
 20
4.73187
  0
VERTEX
  8
0
 10
10.61896
 20
4.73187
  0
VERTEX
  8
0
 10
10.61896
 20
5.74615
  0
SEQEND
  8
0
  0
POLYLINE
  8
0
 66
     1
  0
VERTEX
  8
0
 10
13.3678
 20
5.74615
  0
VERTEX
  8
0
 10
16.1114
 20
5.74615
  0
VERTEX
  8
0
 10
16.1114
 20
4.73187
  0
VERTEX
  8
0
 10
13.3678
 20
4.73187
  0
VERTEX
  8
0
 10
13.3678
 20
5.74615
  0
SEQEND
  8
0
  0
POLYLINE
  8
0
 66
     1
  0
VERTEX
  8
0
 10
-5.87389
 20
6.765
  0
VERTEX
  8
0
 10
-2.21544
 20
6.765
  0
VERTEX
  8
0
 10
-2.21544
 20
5.75069
  0
VERTEX
  8
0
 10
-5.87389
 20
5.75069
  0
VERTEX
  8
0
 10
-5.87389
 20
6.765
  0
SEQEND
  8
0
  0
POLYLINE
  8
0
 66
     1
  0
VERTEX
  8
0
 10
-2.20852
 20
6.765
  0
VERTEX
  8
0
 10
1.44992
 20
6.765
  0
VERTEX
  8
0
 10
1.44992
 20
5.75069
  0
VERTEX
  8
0
 10
-2.20852
 20
5.75069
  0
VERTEX
  8
0
 10
-2.20852
 20
6.765
  0
SEQEND
  8
0
  0
POLYLINE
  8
0
 66
     1
  0
VERTEX
  8
0
 10
1.45684
 20
6.765
  0
VERTEX
  8
0
 10
5.1153
 20
6.765
  0
VERTEX
  8
0
 10
5.1153
 20
5.75069
  0
VERTEX
  8
0
 10
1.45684
 20
5.75069
  0
VERTEX
  8
0
 10
1.45684
 20
6.765
  0
SEQEND
  8
0
  0
POLYLINE
  8
0
 66
     1
  0
VERTEX
  8
0
 10
5.12222
 20
6.765
  0
VERTEX
  8
0
 10
8.78067
 20
6.765
  0
VERTEX
  8
0
 10
8.78067
 20
5.75069
  0
VERTEX
  8
0
 10
5.12222
 20
5.75069
  0
VERTEX
  8
0
 10
5.12222
 20
6.765
  0
SEQEND
  8
0
  0
POLYLINE
  8
0
 66
     1
  0
VERTEX
  8
0
 10
8.78759
 20
6.765
  0
VERTEX
  8
0
 10
12.44602
 20
6.765
  0
VERTEX
  8
0
 10
12.44602
 20
5.75069
  0
VERTEX
  8
0
 10
8.78759
 20
5.75069
  0
VERTEX
  8
0
 10
8.78759
 20
6.765
  0
SEQEND
  8
0
  0
POLYLINE
  8
0
 66
     1
  0
VERTEX
  8
0
 10
12.45297
 20
6.765
  0
VERTEX
  8
0
 10
16.1114
 20
6.765
  0
VERTEX
  8
0
 10
16.1114
 20
5.75069
  0
VERTEX
  8
0
 10
12.45297
 20
5.75069
  0
VERTEX
  8
0
 10
12.45297
 20
6.765
  0
SEQEND
  8
0
  0
POLYLINE
  8
0
 66
     1
  0
VERTEX
  8
0
 10
-5.87389
 20
3.68531
  0
VERTEX
  8
0
 10
-4.04512
 20
3.68531
  0
VERTEX
  8
0
 10
-4.04512
 20
2.67101
  0
VERTEX
  8
0
 10
-5.87389
 20
2.67101
  0
VERTEX
  8
0
 10
-5.87389
 20
3.68531
  0
SEQEND
  8
0
  0
POLYLINE
  8
0
 66
     1
  0
VERTEX
  8
0
 10
-4.04166
 20
3.68531
  0
VERTEX
  8
0
 10
-2.21291
 20
3.68531
  0
VERTEX
  8
0
 10
-2.21291
 20
2.67101
  0
VERTEX
  8
0
 10
-4.04166
 20
2.67101
  0
VERTEX
  8
0
 10
-4.04166
 20
3.68531
  0
SEQEND
  8
0
  0
POLYLINE
  8
0
 66
     1
  0
VERTEX
  8
0
 10
-2.20942
 20
3.68531
  0
VERTEX
  8
0
 10
-0.38065
 20
3.68531
  0
VERTEX
  8
0
 10
-0.38065
 20
2.67101
  0
VERTEX
  8
0
 10
-2.20942
 20
2.67101
  0
VERTEX
  8
0
 10
-2.20942
 20
3.68531
  0
SEQEND
  8
0
  0
POLYLINE
  8
0
 66
     1
  0
VERTEX
  8
0
 10
-0.37719
 20
3.68531
  0
VERTEX
  8
0
 10
1.45157
 20
3.68531
  0
VERTEX
  8
0
 10
1.45157
 20
2.67101
  0
VERTEX
  8
0
 10
-0.37719
 20
2.67101
  0
VERTEX
  8
0
 10
-0.37719
 20
3.68531
  0
SEQEND
  8
0
  0
POLYLINE
  8
0
 66
     1
  0
VERTEX
  8
0
 10
1.45502
 20
3.68531
  0
VERTEX
  8
0
 10
3.28377
 20
3.68531
  0
VERTEX
  8
0
 10
3.28377
 20
2.67101
  0
VERTEX
  8
0
 10
1.45502
 20
2.67101
  0
VERTEX
  8
0
 10
1.45502
 20
3.68531
  0
SEQEND
  8
0
  0
POLYLINE
  8
0
 66
     1
  0
VERTEX
  8
0
 10
3.28726
 20
3.68531
  0
VERTEX
  8
0
 10
5.11601
 20
3.68531
  0
VERTEX
  8
0
 10
5.11601
 20
2.67101
  0
VERTEX
  8
0
 10
3.28726
 20
2.67101
  0
VERTEX
  8
0
 10
3.28726
 20
3.68531
  0
SEQEND
  8
0
  0
POLYLINE
  8
0
 66
     1
  0
VERTEX
  8
0
 10
5.11949
 20
3.68531
  0
VERTEX
  8
0
 10
6.94824
 20
3.68531
  0
VERTEX
  8
0
 10
6.94824
 20
2.67101
  0
VERTEX
  8
0
 10
5.11949
 20
2.67101
  0
VERTEX
  8
0
 10
5.11949
 20
3.68531
  0
SEQEND
  8
0
  0
POLYLINE
  8
0
 66
     1
  0
VERTEX
  8
0
 10
6.95172
 20
3.68531
  0
VERTEX
  8
0
 10
8.78048
 20
3.68531
  0
VERTEX
  8
0
 10
8.78048
 20
2.67101
  0
VERTEX
  8
0
 10
6.95172
 20
2.67101
  0
VERTEX
  8
0
 10
6.95172
 20
3.68531
  0
SEQEND
  8
0
  0
POLYLINE
  8
0
 66
     1
  0
VERTEX
  8
0
 10
8.78394
 20
3.68531
  0
VERTEX
  8
0
 10
10.61269
 20
3.68531
  0
VERTEX
  8
0
 10
10.61269
 20
2.67101
  0
VERTEX
  8
0
 10
8.78394
 20
2.67101
  0
VERTEX
  8
0
 10
8.78394
 20
3.68531
  0
SEQEND
  8
0
  0
POLYLINE
  8
0
 66
     1
  0
VERTEX
  8
0
 10
10.61617
 20
3.68531
  0
VERTEX
  8
0
 10
12.4449
 20
3.68531
  0
VERTEX
  8
0
 10
12.4449
 20
2.67101
  0
VERTEX
  8
0
 10
10.61617
 20
2.67101
  0
VERTEX
  8
0
 10
10.61617
 20
3.68531
  0
SEQEND
  8
0
  0
POLYLINE
  8
0
 66
     1
  0
VERTEX
  8
0
 10
12.4484
 20
3.68531
  0
VERTEX
  8
0
 10
14.27718
 20
3.68531
  0
VERTEX
  8
0
 10
14.27718
 20
2.67101
  0
VERTEX
  8
0
 10
12.4484
 20
2.67101
  0
VERTEX
  8
0
 10
12.4484
 20
3.68531
  0
SEQEND
  8
0
  0
POLYLINE
  8
0
 66
     1
  0
VERTEX
  8
0
 10
14.28062
 20
3.68531
  0
VERTEX
  8
0
 10
16.10939
 20
3.68531
  0
VERTEX
  8
0
 10
16.10939
 20
2.67101
  0
VERTEX
  8
0
 10
14.28062
 20
2.67101
  0
VERTEX
  8
0
 10
14.28062
 20
3.68531
  0
SEQEND
  8
0
  0
POLYLINE
  8
0
 66
     1
  0
VERTEX
  8
0
 10
-5.87389
 20
8.8025
  0
VERTEX
  8
0
 10
1.4453
 20
8.8025
  0
VERTEX
  8
0
 10
1.4453
 20
7.7882
  0
VERTEX
  8
0
 10
-5.87389
 20
7.7882
  0
VERTEX
  8
0
 10
-5.87389
 20
8.8025
  0
SEQEND
  8
0
  0
POLYLINE
  8
0
 66
     1
  0
VERTEX
  8
0
 10
1.45914
 20
8.8025
  0
VERTEX
  8
0
 10
8.77832
 20
8.8025
  0
VERTEX
  8
0
 10
8.77832
 20
7.7882
  0
VERTEX
  8
0
 10
1.45914
 20
7.7882
  0
VERTEX
  8
0
 10
1.45914
 20
8.8025
  0
SEQEND
  8
0
  0
POLYLINE
  8
0
 66
     1
  0
VERTEX
  8
0
 10
8.79218
 20
8.8025
  0
VERTEX
  8
0
 10
16.11135
 20
8.8025
  0
VERTEX
  8
0
 10
16.11135
 20
7.7882
  0
VERTEX
  8
0
 10
8.79218
 20
7.7882
  0
VERTEX
  8
0
 10
8.79218
 20
8.8025
  0
SEQEND
  8
0
  0
POLYLINE
  8
0
 66
     1
  0
VERTEX
  8
0
 10
-5.87415
 20
2.63403
  0
VERTEX
  8
0
 10
-4.50248
 20
2.63403
  0
VERTEX
  8
0
 10
-4.50248
 20
1.61973
  0
VERTEX
  8
0
 10
-5.87415
 20
1.61973
  0
VERTEX
  8
0
 10
-5.87415
 20
2.63403
  0
SEQEND
  8
0
  0
POLYLINE
  8
0
 66
     1
  0
VERTEX
  8
0
 10
-5.87415
 20
2.63403
  0
VERTEX
  8
0
 10
-4.50248
 20
2.63403
  0
VERTEX
  8
0
 10
-4.50248
 20
1.61973
  0
VERTEX
  8
0
 10
-5.87415
 20
1.61973
  0
VERTEX
  8
0
 10
-5.87415
 20
2.63403
  0
SEQEND
  8
0
  0
POLYLINE
  8
0
 66
     1
  0
VERTEX
  8
0
 10
-4.49989
 20
2.63403
  0
VERTEX
  8
0
 10
-3.12824
 20
2.63403
  0
VERTEX
  8
0
 10
-3.12824
 20
1.61973
  0
VERTEX
  8
0
 10
-4.49989
 20
1.61973
  0
VERTEX
  8
0
 10
-4.49989
 20
2.63403
  0
SEQEND
  8
0
  0
POLYLINE
  8
0
 66
     1
  0
VERTEX
  8
0
 10
-3.12562
 20
2.63403
  0
VERTEX
  8
0
 10
-1.75397
 20
2.63403
  0
VERTEX
  8
0
 10
-1.75397
 20
1.61973
  0
VERTEX
  8
0
 10
-3.12562
 20
1.61973
  0
VERTEX
  8
0
 10
-3.12562
 20
2.63403
  0
SEQEND
  8
0
  0
POLYLINE
  8
0
 66
     1
  0
VERTEX
  8
0
 10
-1.75138
 20
2.63403
  0
VERTEX
  8
0
 10
-0.37971
 20
2.63403
  0
VERTEX
  8
0
 10
-0.37971
 20
1.61973
  0
VERTEX
  8
0
 10
-1.75138
 20
1.61973
  0
VERTEX
  8
0
 10
-1.75138
 20
2.63403
  0
SEQEND
  8
0
  0
POLYLINE
  8
0
 66
     1
  0
VERTEX
  8
0
 10
-0.37711
 20
2.63403
  0
VERTEX
  8
0
 10
0.99454
 20
2.63403
  0
VERTEX
  8
0
 10
0.99454
 20
1.61973
  0
VERTEX
  8
0
 10
-0.37711
 20
1.61973
  0
VERTEX
  8
0
 10
-0.37711
 20
2.63403
  0
SEQEND
  8
0
  0
POLYLINE
  8
0
 66
     1
  0
VERTEX
  8
0
 10
0.99715
 20
2.63403
  0
VERTEX
  8
0
 10
2.36878
 20
2.63403
  0
VERTEX
  8
0
 10
2.36878
 20
1.61973
  0
VERTEX
  8
0
 10
0.99715
 20
1.61973
  0
VERTEX
  8
0
 10
0.99715
 20
2.63403
  0
SEQEND
  8
0
  0
POLYLINE
  8
0
 66
     1
  0
VERTEX
  8
0
 10
2.37141
 20
2.63403
  0
VERTEX
  8
0
 10
3.74308
 20
2.63403
  0
VERTEX
  8
0
 10
3.74308
 20
1.61973
  0
VERTEX
  8
0
 10
2.37141
 20
1.61973
  0
VERTEX
  8
0
 10
2.37141
 20
2.63403
  0
SEQEND
  8
0
  0
POLYLINE
  8
0
 66
     1
  0
VERTEX
  8
0
 10
3.74566
 20
2.63403
  0
VERTEX
  8
0
 10
5.11733
 20
2.63403
  0
VERTEX
  8
0
 10
5.11733
 20
1.61973
  0
VERTEX
  8
0
 10
3.74566
 20
1.61973
  0
VERTEX
  8
0
 10
3.74566
 20
2.63403
  0
SEQEND
  8
0
  0
POLYLINE
  8
0
 66
     1
  0
VERTEX
  8
0
 10
5.12408
 20
2.63403
  0
VERTEX
  8
0
 10
6.49573
 20
2.63403
  0
VERTEX
  8
0
 10
6.49573
 20
1.61973
  0
VERTEX
  8
0
 10
5.12408
 20
1.61973
  0
VERTEX
  8
0
 10
5.12408
 20
2.63403
  0
SEQEND
  8
0
  0
POLYLINE
  8
0
 66
     1
  0
VERTEX
  8
0
 10
5.12408
 20
2.63403
  0
VERTEX
  8
0
 10
6.49573
 20
2.63403
  0
VERTEX
  8
0
 10
6.49573
 20
1.61973
  0
VERTEX
  8
0
 10
5.12408
 20
1.61973
  0
VERTEX
  8
0
 10
5.12408
 20
2.63403
  0
SEQEND
  8
0
  0
POLYLINE
  8
0
 66
     1
  0
VERTEX
  8
0
 10
6.49836
 20
2.63403
  0
VERTEX
  8
0
 10
7.87001
 20
2.63403
  0
VERTEX
  8
0
 10
7.87001
 20
1.61973
  0
VERTEX
  8
0
 10
6.49836
 20
1.61973
  0
VERTEX
  8
0
 10
6.49836
 20
2.63403
  0
SEQEND
  8
0
  0
POLYLINE
  8
0
 66
     1
  0
VERTEX
  8
0
 10
7.8726
 20
2.63403
  0
VERTEX
  8
0
 10
9.24429
 20
2.63403
  0
VERTEX
  8
0
 10
9.24429
 20
1.61973
  0
VERTEX
  8
0
 10
7.8726
 20
1.61973
  0
VERTEX
  8
0
 10
7.8726
 20
2.63403
  0
SEQEND
  8
0
  0
POLYLINE
  8
0
 66
     1
  0
VERTEX
  8
0
 10
9.24687
 20
2.63403
  0
VERTEX
  8
0
 10
10.61852
 20
2.63403
  0
VERTEX
  8
0
 10
10.61852
 20
1.61973
  0
VERTEX
  8
0
 10
9.24687
 20
1.61973
  0
VERTEX
  8
0
 10
9.24687
 20
2.63403
  0
SEQEND
  8
0
  0
POLYLINE
  8
0
 66
     1
  0
VERTEX
  8
0
 10
10.62113
 20
2.63403
  0
VERTEX
  8
0
 10
11.99278
 20
2.63403
  0
VERTEX
  8
0
 10
11.99278
 20
1.61973
  0
VERTEX
  8
0
 10
10.62113
 20
1.61973
  0
VERTEX
  8
0
 10
10.62113
 20
2.63403
  0
SEQEND
  8
0
  0
POLYLINE
  8
0
 66
     1
  0
VERTEX
  8
0
 10
11.99536
 20
2.63403
  0
VERTEX
  8
0
 10
13.36704
 20
2.63403
  0
VERTEX
  8
0
 10
13.36704
 20
1.61973
  0
VERTEX
  8
0
 10
11.99536
 20
1.61973
  0
VERTEX
  8
0
 10
11.99536
 20
2.63403
  0
SEQEND
  8
0
  0
POLYLINE
  8
0
 66
     1
  0
VERTEX
  8
0
 10
13.36964
 20
2.63403
  0
VERTEX
  8
0
 10
14.74129
 20
2.63403
  0
VERTEX
  8
0
 10
14.74129
 20
1.61973
  0
VERTEX
  8
0
 10
13.36964
 20
1.61973
  0
VERTEX
  8
0
 10
13.36964
 20
2.63403
  0
SEQEND
  8
0
  0
POLYLINE
  8
0
 66
     1
  0
VERTEX
  8
0
 10
14.7439
 20
2.63403
  0
VERTEX
  8
0
 10
16.11555
 20
2.63403
  0
VERTEX
  8
0
 10
16.11555
 20
1.61973
  0
VERTEX
  8
0
 10
14.7439
 20
1.61973
  0
VERTEX
  8
0
 10
14.7439
 20
2.63403
  0
SEQEND
  8
0
  0
POLYLINE
  8
0
 66
     1
  0
VERTEX
  8
0
 10
-5.87554
 20
0.52591
  0
VERTEX
  8
0
 10
-5.19083
 20
0.52591
  0
VERTEX
  8
0
 10
-5.19083
 20
-0.48839
  0
VERTEX
  8
0
 10
-5.87554
 20
-0.48839
  0
VERTEX
  8
0
 10
-5.87554
 20
0.52591
  0
SEQEND
  8
0
  0
POLYLINE
  8
0
 66
     1
  0
VERTEX
  8
0
 10
-5.87554
 20
0.52591
  0
VERTEX
  8
0
 10
-5.19083
 20
0.52591
  0
VERTEX
  8
0
 10
-5.19083
 20
-0.48839
  0
VERTEX
  8
0
 10
-5.87554
 20
-0.48839
  0
VERTEX
  8
0
 10
-5.87554
 20
0.52591
  0
SEQEND
  8
0
  0
POLYLINE
  8
0
 66
     1
  0
VERTEX
  8
0
 10
-5.18954
 20
0.52591
  0
VERTEX
  8
0
 10
-4.50482
 20
0.52591
  0
VERTEX
  8
0
 10
-4.50482
 20
-0.48839
  0
VERTEX
  8
0
 10
-5.18954
 20
-0.48839
  0
VERTEX
  8
0
 10
-5.18954
 20
0.52591
  0
SEQEND
  8
0
  0
POLYLINE
  8
0
 66
     1
  0
VERTEX
  8
0
 10
-4.50352
 20
0.52591
  0
VERTEX
  8
0
 10
-3.81881
 20
0.52591
  0
VERTEX
  8
0
 10
-3.81881
 20
-0.48839
  0
VERTEX
  8
0
 10
-4.50352
 20
-0.48839
  0
VERTEX
  8
0
 10
-4.50352
 20
0.52591
  0
SEQEND
  8
0
  0
POLYLINE
  8
0
 66
     1
  0
VERTEX
  8
0
 10
-3.81753
 20
0.52591
  0
VERTEX
  8
0
 10
-3.13279
 20
0.52591
  0
VERTEX
  8
0
 10
-3.13279
 20
-0.48839
  0
VERTEX
  8
0
 10
-3.81753
 20
-0.48839
  0
VERTEX
  8
0
 10
-3.81753
 20
0.52591
  0
SEQEND
  8
0
  0
POLYLINE
  8
0
 66
     1
  0
VERTEX
  8
0
 10
-3.1315
 20
0.52591
  0
VERTEX
  8
0
 10
-2.44681
 20
0.52591
  0
VERTEX
  8
0
 10
-2.44681
 20
-0.48839
  0
VERTEX
  8
0
 10
-3.1315
 20
-0.48839
  0
VERTEX
  8
0
 10
-3.1315
 20
0.52591
  0
SEQEND
  8
0
  0
POLYLINE
  8
0
 66
     1
  0
VERTEX
  8
0
 10
-2.44551
 20
0.52591
  0
VERTEX
  8
0
 10
-1.76077
 20
0.52591
  0
VERTEX
  8
0
 10
-1.76077
 20
-0.48839
  0
VERTEX
  8
0
 10
-2.44551
 20
-0.48839
  0
VERTEX
  8
0
 10
-2.44551
 20
0.52591
  0
SEQEND
  8
0
  0
POLYLINE
  8
0
 66
     1
  0
VERTEX
  8
0
 10
-1.75949
 20
0.52591
  0
VERTEX
  8
0
 10
-1.07478
 20
0.52591
  0
VERTEX
  8
0
 10
-1.07478
 20
-0.48839
  0
VERTEX
  8
0
 10
-1.75949
 20
-0.48839
  0
VERTEX
  8
0
 10
-1.75949
 20
0.52591
  0
SEQEND
  8
0
  0
POLYLINE
  8
0
 66
     1
  0
VERTEX
  8
0
 10
-1.07348
 20
0.52591
  0
VERTEX
  8
0
 10
-0.38878
 20
0.52591
  0
VERTEX
  8
0
 10
-0.38878
 20
-0.48839
  0
VERTEX
  8
0
 10
-1.07348
 20
-0.48839
  0
VERTEX
  8
0
 10
-1.07348
 20
0.52591
  0
SEQEND
  8
0
  0
POLYLINE
  8
0
 66
     1
  0
VERTEX
  8
0
 10
-0.3854
 20
0.52591
  0
VERTEX
  8
0
 10
0.29933
 20
0.52591
  0
VERTEX
  8
0
 10
0.29933
 20
-0.48839
  0
VERTEX
  8
0
 10
-0.3854
 20
-0.48839
  0
VERTEX
  8
0
 10
-0.3854
 20
0.52591
  0
SEQEND
  8
0
  0
POLYLINE
  8
0
 66
     1
  0
VERTEX
  8
0
 10
-0.3854
 20
0.52591
  0
VERTEX
  8
0
 10
0.29933
 20
0.52591
  0
VERTEX
  8
0
 10
0.29933
 20
-0.48839
  0
VERTEX
  8
0
 10
-0.3854
 20
-0.48839
  0
VERTEX
  8
0
 10
-0.3854
 20
0.52591
  0
SEQEND
  8
0
  0
POLYLINE
  8
0
 66
     1
  0
VERTEX
  8
0
 10
0.30061
 20
0.52591
  0
VERTEX
  8
0
 10
0.98533
 20
0.52591
  0
VERTEX
  8
0
 10
0.98533
 20
-0.48839
  0
VERTEX
  8
0
 10
0.30061
 20
-0.48839
  0
VERTEX
  8
0
 10
0.30061
 20
0.52591
  0
SEQEND
  8
0
  0
POLYLINE
  8
0
 66
     1
  0
VERTEX
  8
0
 10
0.98663
 20
0.52591
  0
VERTEX
  8
0
 10
1.67132
 20
0.52591
  0
VERTEX
  8
0
 10
1.67132
 20
-0.48839
  0
VERTEX
  8
0
 10
0.98663
 20
-0.48839
  0
VERTEX
  8
0
 10
0.98663
 20
0.52591
  0
SEQEND
  8
0
  0
POLYLINE
  8
0
 66
     1
  0
VERTEX
  8
0
 10
1.67263
 20
0.52591
  0
VERTEX
  8
0
 10
2.35735
 20
0.52591
  0
VERTEX
  8
0
 10
2.35735
 20
-0.48839
  0
VERTEX
  8
0
 10
1.67263
 20
-0.48839
  0
VERTEX
  8
0
 10
1.67263
 20
0.52591
  0
SEQEND
  8
0
  0
POLYLINE
  8
0
 66
     1
  0
VERTEX
  8
0
 10
2.35863
 20
0.52591
  0
VERTEX
  8
0
 10
3.04334
 20
0.52591
  0
VERTEX
  8
0
 10
3.04334
 20
-0.48839
  0
VERTEX
  8
0
 10
2.35863
 20
-0.48839
  0
VERTEX
  8
0
 10
2.35863
 20
0.52591
  0
SEQEND
  8
0
  0
POLYLINE
  8
0
 66
     1
  0
VERTEX
  8
0
 10
3.04464
 20
0.52591
  0
VERTEX
  8
0
 10
3.72936
 20
0.52591
  0
VERTEX
  8
0
 10
3.72936
 20
-0.48839
  0
VERTEX
  8
0
 10
3.04464
 20
-0.48839
  0
VERTEX
  8
0
 10
3.04464
 20
0.52591
  0
SEQEND
  8
0
  0
POLYLINE
  8
0
 66
     1
  0
VERTEX
  8
0
 10
3.73067
 20
0.52591
  0
VERTEX
  8
0
 10
4.41536
 20
0.52591
  0
VERTEX
  8
0
 10
4.41536
 20
-0.48839
  0
VERTEX
  8
0
 10
3.73067
 20
-0.48839
  0
VERTEX
  8
0
 10
3.73067
 20
0.52591
  0
SEQEND
  8
0
  0
POLYLINE
  8
0
 66
     1
  0
VERTEX
  8
0
 10
4.41666
 20
0.52591
  0
VERTEX
  8
0
 10
5.10135
 20
0.52591
  0
VERTEX
  8
0
 10
5.10135
 20
-0.48839
  0
VERTEX
  8
0
 10
4.41666
 20
-0.48839
  0
VERTEX
  8
0
 10
4.41666
 20
0.52591
  0
SEQEND
  8
0
  0
POLYLINE
  8
0
 66
     1
  0
VERTEX
  8
0
 10
5.14317
 20
0.5388
  0
VERTEX
  8
0
 10
5.82788
 20
0.5388
  0
VERTEX
  8
0
 10
5.82788
 20
-0.47548
  0
VERTEX
  8
0
 10
5.14317
 20
-0.47548
  0
VERTEX
  8
0
 10
5.14317
 20
0.5388
  0
SEQEND
  8
0
  0
POLYLINE
  8
0
 66
     1
  0
VERTEX
  8
0
 10
5.14317
 20
0.5388
  0
VERTEX
  8
0
 10
5.82788
 20
0.5388
  0
VERTEX
  8
0
 10
5.82788
 20
-0.47548
  0
VERTEX
  8
0
 10
5.14317
 20
-0.47548
  0
VERTEX
  8
0
 10
5.14317
 20
0.5388
  0
SEQEND
  8
0
  0
POLYLINE
  8
0
 66
     1
  0
VERTEX
  8
0
 10
5.82918
 20
0.5388
  0
VERTEX
  8
0
 10
6.51387
 20
0.5388
  0
VERTEX
  8
0
 10
6.51387
 20
-0.47548
  0
VERTEX
  8
0
 10
5.82918
 20
-0.47548
  0
VERTEX
  8
0
 10
5.82918
 20
0.5388
  0
SEQEND
  8
0
  0
POLYLINE
  8
0
 66
     1
  0
VERTEX
  8
0
 10
6.5152
 20
0.5388
  0
VERTEX
  8
0
 10
7.1999
 20
0.5388
  0
VERTEX
  8
0
 10
7.1999
 20
-0.47548
  0
VERTEX
  8
0
 10
6.5152
 20
-0.47548
  0
VERTEX
  8
0
 10
6.5152
 20
0.5388
  0
SEQEND
  8
0
  0
POLYLINE
  8
0
 66
     1
  0
VERTEX
  8
0
 10
7.2012
 20
0.5388
  0
VERTEX
  8
0
 10
7.8859
 20
0.5388
  0
VERTEX
  8
0
 10
7.8859
 20
-0.47548
  0
VERTEX
  8
0
 10
7.2012
 20
-0.47548
  0
VERTEX
  8
0
 10
7.2012
 20
0.5388
  0
SEQEND
  8
0
  0
POLYLINE
  8
0
 66
     1
  0
VERTEX
  8
0
 10
7.88719
 20
0.5388
  0
VERTEX
  8
0
 10
8.57192
 20
0.5388
  0
VERTEX
  8
0
 10
8.57192
 20
-0.47548
  0
VERTEX
  8
0
 10
7.88719
 20
-0.47548
  0
VERTEX
  8
0
 10
7.88719
 20
0.5388
  0
SEQEND
  8
0
  0
POLYLINE
  8
0
 66
     1
  0
VERTEX
  8
0
 10
8.57321
 20
0.5388
  0
VERTEX
  8
0
 10
9.25791
 20
0.5388
  0
VERTEX
  8
0
 10
9.25791
 20
-0.47548
  0
VERTEX
  8
0
 10
8.57321
 20
-0.47548
  0
VERTEX
  8
0
 10
8.57321
 20
0.5388
  0
SEQEND
  8
0
  0
POLYLINE
  8
0
 66
     1
  0
VERTEX
  8
0
 10
9.25921
 20
0.5388
  0
VERTEX
  8
0
 10
9.94392
 20
0.5388
  0
VERTEX
  8
0
 10
9.94392
 20
-0.47548
  0
VERTEX
  8
0
 10
9.25921
 20
-0.47548
  0
VERTEX
  8
0
 10
9.25921
 20
0.5388
  0
SEQEND
  8
0
  0
POLYLINE
  8
0
 66
     1
  0
VERTEX
  8
0
 10
9.94523
 20
0.5388
  0
VERTEX
  8
0
 10
10.62993
 20
0.5388
  0
VERTEX
  8
0
 10
10.62993
 20
-0.47548
  0
VERTEX
  8
0
 10
9.94523
 20
-0.47548
  0
VERTEX
  8
0
 10
9.94523
 20
0.5388
  0
SEQEND
  8
0
  0
POLYLINE
  8
0
 66
     1
  0
VERTEX
  8
0
 10
10.63332
 20
0.5388
  0
VERTEX
  8
0
 10
11.31802
 20
0.5388
  0
VERTEX
  8
0
 10
11.31802
 20
-0.47548
  0
VERTEX
  8
0
 10
10.63332
 20
-0.47548
  0
VERTEX
  8
0
 10
10.63332
 20
0.5388
  0
SEQEND
  8
0
  0
POLYLINE
  8
0
 66
     1
  0
VERTEX
  8
0
 10
10.63332
 20
0.5388
  0
VERTEX
  8
0
 10
11.31802
 20
0.5388
  0
VERTEX
  8
0
 10
11.31802
 20
-0.47548
  0
VERTEX
  8
0
 10
10.63332
 20
-0.47548
  0
VERTEX
  8
0
 10
10.63332
 20
0.5388
  0
SEQEND
  8
0
  0
POLYLINE
  8
0
 66
     1
  0
VERTEX
  8
0
 10
11.31931
 20
0.5388
  0
VERTEX
  8
0
 10
12.00403
 20
0.5388
  0
VERTEX
  8
0
 10
12.00403
 20
-0.47548
  0
VERTEX
  8
0
 10
11.31931
 20
-0.47548
  0
VERTEX
  8
0
 10
11.31931
 20
0.5388
  0
SEQEND
  8
0
  0
POLYLINE
  8
0
 66
     1
  0
VERTEX
  8
0
 10
12.00534
 20
0.5388
  0
VERTEX
  8
0
 10
12.69005
 20
0.5388
  0
VERTEX
  8
0
 10
12.69005
 20
-0.47548
  0
VERTEX
  8
0
 10
12.00534
 20
-0.47548
  0
VERTEX
  8
0
 10
12.00534
 20
0.5388
  0
SEQEND
  8
0
  0
POLYLINE
  8
0
 66
     1
  0
VERTEX
  8
0
 10
12.69133
 20
0.5388
  0
VERTEX
  8
0
 10
13.37603
 20
0.5388
  0
VERTEX
  8
0
 10
13.37603
 20
-0.47548
  0
VERTEX
  8
0
 10
12.69133
 20
-0.47548
  0
VERTEX
  8
0
 10
12.69133
 20
0.5388
  0
SEQEND
  8
0
  0
POLYLINE
  8
0
 66
     1
  0
VERTEX
  8
0
 10
13.37733
 20
0.5388
  0
VERTEX
  8
0
 10
14.06205
 20
0.5388
  0
VERTEX
  8
0
 10
14.06205
 20
-0.47548
  0
VERTEX
  8
0
 10
13.37733
 20
-0.47548
  0
VERTEX
  8
0
 10
13.37733
 20
0.5388
  0
SEQEND
  8
0
  0
POLYLINE
  8
0
 66
     1
  0
VERTEX
  8
0
 10
14.06335
 20
0.5388
  0
VERTEX
  8
0
 10
14.74806
 20
0.5388
  0
VERTEX
  8
0
 10
14.74806
 20
-0.47548
  0
VERTEX
  8
0
 10
14.06335
 20
-0.47548
  0
VERTEX
  8
0
 10
14.06335
 20
0.5388
  0
SEQEND
  8
0
  0
POLYLINE
  8
0
 66
     1
  0
VERTEX
  8
0
 10
14.74935
 20
0.5388
  0
VERTEX
  8
0
 10
15.43408
 20
0.5388
  0
VERTEX
  8
0
 10
15.43408
 20
-0.47548
  0
VERTEX
  8
0
 10
14.74935
 20
-0.47548
  0
VERTEX
  8
0
 10
14.74935
 20
0.5388
  0
SEQEND
  8
0
  0
POLYLINE
  8
0
 66
     1
  0
VERTEX
  8
0
 10
15.43537
 20
0.5388
  0
VERTEX
  8
0
 10
16.12008
 20
0.5388
  0
VERTEX
  8
0
 10
16.12008
 20
-0.47548
  0
VERTEX
  8
0
 10
15.43537
 20
-0.47548
  0
VERTEX
  8
0
 10
15.43537
 20
0.5388
  0
SEQEND
  8
0
  0
POLYLINE
  8
0
 66
     1
  0
VERTEX
  8
0
 10
-5.8771
 20
1.57686
  0
VERTEX
  8
0
 10
-4.96256
 20
1.57686
  0
VERTEX
  8
0
 10
-4.96256
 20
0.56257
  0
VERTEX
  8
0
 10
-5.8771
 20
0.56257
  0
VERTEX
  8
0
 10
-5.8771
 20
1.57686
  0
SEQEND
  8
0
  0
POLYLINE
  8
0
 66
     1
  0
VERTEX
  8
0
 10
-4.96083
 20
1.57686
  0
VERTEX
  8
0
 10
-4.04633
 20
1.57686
  0
VERTEX
  8
0
 10
-4.04633
 20
0.56257
  0
VERTEX
  8
0
 10
-4.96083
 20
0.56257
  0
VERTEX
  8
0
 10
-4.96083
 20
1.57686
  0
SEQEND
  8
0
  0
POLYLINE
  8
0
 66
     1
  0
VERTEX
  8
0
 10
-4.04458
 20
1.57686
  0
VERTEX
  8
0
 10
-3.13003
 20
1.57686
  0
VERTEX
  8
0
 10
-3.13003
 20
0.56257
  0
VERTEX
  8
0
 10
-4.04458
 20
0.56257
  0
VERTEX
  8
0
 10
-4.04458
 20
1.57686
  0
SEQEND
  8
0
  0
POLYLINE
  8
0
 66
     1
  0
VERTEX
  8
0
 10
-3.12831
 20
1.57686
  0
VERTEX
  8
0
 10
-2.21379
 20
1.57686
  0
VERTEX
  8
0
 10
-2.21379
 20
0.56257
  0
VERTEX
  8
0
 10
-3.12831
 20
0.56257
  0
VERTEX
  8
0
 10
-3.12831
 20
1.57686
  0
SEQEND
  8
0
  0
POLYLINE
  8
0
 66
     1
  0
VERTEX
  8
0
 10
-2.21206
 20
1.57686
  0
VERTEX
  8
0
 10
-1.29754
 20
1.57686
  0
VERTEX
  8
0
 10
-1.29754
 20
0.56257
  0
VERTEX
  8
0
 10
-2.21206
 20
0.56257
  0
VERTEX
  8
0
 10
-2.21206
 20
1.57686
  0
SEQEND
  8
0
  0
POLYLINE
  8
0
 66
     1
  0
VERTEX
  8
0
 10
-1.29581
 20
1.57686
  0
VERTEX
  8
0
 10
-0.38127
 20
1.57686
  0
VERTEX
  8
0
 10
-0.38127
 20
0.56257
  0
VERTEX
  8
0
 10
-1.29581
 20
0.56257
  0
VERTEX
  8
0
 10
-1.29581
 20
1.57686
  0
SEQEND
  8
0
  0
POLYLINE
  8
0
 66
     1
  0
VERTEX
  8
0
 10
-0.37954
 20
1.57686
  0
VERTEX
  8
0
 10
0.53498
 20
1.57686
  0
VERTEX
  8
0
 10
0.53498
 20
0.56257
  0
VERTEX
  8
0
 10
-0.37954
 20
0.56257
  0
VERTEX
  8
0
 10
-0.37954
 20
1.57686
  0
SEQEND
  8
0
  0
POLYLINE
  8
0
 66
     1
  0
VERTEX
  8
0
 10
0.53673
 20
1.57686
  0
VERTEX
  8
0
 10
1.45125
 20
1.57686
  0
VERTEX
  8
0
 10
1.45125
 20
0.56257
  0
VERTEX
  8
0
 10
0.53673
 20
0.56257
  0
VERTEX
  8
0
 10
0.53673
 20
1.57686
  0
SEQEND
  8
0
  0
POLYLINE
  8
0
 66
     1
  0
VERTEX
  8
0
 10
1.45298
 20
1.57686
  0
VERTEX
  8
0
 10
2.36752
 20
1.57686
  0
VERTEX
  8
0
 10
2.36752
 20
0.56257
  0
VERTEX
  8
0
 10
1.45298
 20
0.56257
  0
VERTEX
  8
0
 10
1.45298
 20
1.57686
  0
SEQEND
  8
0
  0
POLYLINE
  8
0
 66
     1
  0
VERTEX
  8
0
 10
2.36923
 20
1.57686
  0
VERTEX
  8
0
 10
3.28377
 20
1.57686
  0
VERTEX
  8
0
 10
3.28377
 20
0.56257
  0
VERTEX
  8
0
 10
2.36923
 20
0.56257
  0
VERTEX
  8
0
 10
2.36923
 20
1.57686
  0
SEQEND
  8
0
  0
POLYLINE
  8
0
 66
     1
  0
VERTEX
  8
0
 10
3.2855
 20
1.57686
  0
VERTEX
  8
0
 10
4.20004
 20
1.57686
  0
VERTEX
  8
0
 10
4.20004
 20
0.56257
  0
VERTEX
  8
0
 10
3.2855
 20
0.56257
  0
VERTEX
  8
0
 10
3.2855
 20
1.57686
  0
SEQEND
  8
0
  0
POLYLINE
  8
0
 66
     1
  0
VERTEX
  8
0
 10
4.20177
 20
1.57686
  0
VERTEX
  8
0
 10
5.11631
 20
1.57686
  0
VERTEX
  8
0
 10
5.11631
 20
0.56257
  0
VERTEX
  8
0
 10
4.20177
 20
0.56257
  0
VERTEX
  8
0
 10
4.20177
 20
1.57686
  0
SEQEND
  8
0
  0
POLYLINE
  8
0
 66
     1
  0
VERTEX
  8
0
 10
5.12076
 20
1.57686
  0
VERTEX
  8
0
 10
6.03531
 20
1.57686
  0
VERTEX
  8
0
 10
6.03531
 20
0.56257
  0
VERTEX
  8
0
 10
5.12076
 20
0.56257
  0
VERTEX
  8
0
 10
5.12076
 20
1.57686
  0
SEQEND
  8
0
  0
POLYLINE
  8
0
 66
     1
  0
VERTEX
  8
0
 10
6.03704
 20
1.57686
  0
VERTEX
  8
0
 10
6.95156
 20
1.57686
  0
VERTEX
  8
0
 10
6.95156
 20
0.56257
  0
VERTEX
  8
0
 10
6.03704
 20
0.56257
  0
VERTEX
  8
0
 10
6.03704
 20
1.57686
  0
SEQEND
  8
0
  0
POLYLINE
  8
0
 66
     1
  0
VERTEX
  8
0
 10
6.95331
 20
1.57686
  0
VERTEX
  8
0
 10
7.86783
 20
1.57686
  0
VERTEX
  8
0
 10
7.86783
 20
0.56257
  0
VERTEX
  8
0
 10
6.95331
 20
0.56257
  0
VERTEX
  8
0
 10
6.95331
 20
1.57686
  0
SEQEND
  8
0
  0
POLYLINE
  8
0
 66
     1
  0
VERTEX
  8
0
 10
7.86954
 20
1.57686
  0
VERTEX
  8
0
 10
8.78411
 20
1.57686
  0
VERTEX
  8
0
 10
8.78411
 20
0.56257
  0
VERTEX
  8
0
 10
7.86954
 20
0.56257
  0
VERTEX
  8
0
 10
7.86954
 20
1.57686
  0
SEQEND
  8
0
  0
POLYLINE
  8
0
 66
     1
  0
VERTEX
  8
0
 10
8.78581
 20
1.57686
  0
VERTEX
  8
0
 10
9.70035
 20
1.57686
  0
VERTEX
  8
0
 10
9.70035
 20
0.56257
  0
VERTEX
  8
0
 10
8.78581
 20
0.56257
  0
VERTEX
  8
0
 10
8.78581
 20
1.57686
  0
SEQEND
  8
0
  0
POLYLINE
  8
0
 66
     1
  0
VERTEX
  8
0
 10
9.70208
 20
1.57686
  0
VERTEX
  8
0
 10
10.6166
 20
1.57686
  0
VERTEX
  8
0
 10
10.6166
 20
0.56257
  0
VERTEX
  8
0
 10
9.70208
 20
0.56257
  0
VERTEX
  8
0
 10
9.70208
 20
1.57686
  0
SEQEND
  8
0
  0
POLYLINE
  8
0
 66
     1
  0
VERTEX
  8
0
 10
10.61833
 20
1.57686
  0
VERTEX
  8
0
 10
11.53287
 20
1.57686
  0
VERTEX
  8
0
 10
11.53287
 20
0.56257
  0
VERTEX
  8
0
 10
10.61833
 20
0.56257
  0
VERTEX
  8
0
 10
10.61833
 20
1.57686
  0
SEQEND
  8
0
  0
POLYLINE
  8
0
 66
     1
  0
VERTEX
  8
0
 10
11.53458
 20
1.57686
  0
VERTEX
  8
0
 10
12.44914
 20
1.57686
  0
VERTEX
  8
0
 10
12.44914
 20
0.56257
  0
VERTEX
  8
0
 10
11.53458
 20
0.56257
  0
VERTEX
  8
0
 10
11.53458
 20
1.57686
  0
SEQEND
  8
0
  0
POLYLINE
  8
0
 66
     1
  0
VERTEX
  8
0
 10
12.45085
 20
1.57686
  0
VERTEX
  8
0
 10
13.36537
 20
1.57686
  0
VERTEX
  8
0
 10
13.36537
 20
0.56257
  0
VERTEX
  8
0
 10
12.45085
 20
0.56257
  0
VERTEX
  8
0
 10
12.45085
 20
1.57686
  0
SEQEND
  8
0
  0
POLYLINE
  8
0
 66
     1
  0
VERTEX
  8
0
 10
13.3671
 20
1.57686
  0
VERTEX
  8
0
 10
14.28164
 20
1.57686
  0
VERTEX
  8
0
 10
14.28164
 20
0.56257
  0
VERTEX
  8
0
 10
13.3671
 20
0.56257
  0
VERTEX
  8
0
 10
13.3671
 20
1.57686
  0
SEQEND
  8
0
  0
POLYLINE
  8
0
 66
     1
  0
VERTEX
  8
0
 10
14.28337
 20
1.57686
  0
VERTEX
  8
0
 10
15.19792
 20
1.57686
  0
VERTEX
  8
0
 10
15.19792
 20
0.56257
  0
VERTEX
  8
0
 10
14.28337
 20
0.56257
  0
VERTEX
  8
0
 10
14.28337
 20
1.57686
  0
SEQEND
  8
0
  0
POLYLINE
  8
0
 66
     1
  0
VERTEX
  8
0
 10
15.19964
 20
1.57686
  0
VERTEX
  8
0
 10
16.11416
 20
1.57686
  0
VERTEX
  8
0
 10
16.11416
 20
0.56257
  0
VERTEX
  8
0
 10
15.19964
 20
0.56257
  0
VERTEX
  8
0
 10
15.19964
 20
1.57686
  0
SEQEND
  8
0
  0
ENDSEC
  0
EOF
